Song name
# A B C D E F G H I J K L M N O P Q R S T U V W X Y Z

Warpaint - Keep It Healthy tab

Intro - Sounds good with a little vibrato and some chorus!


e--------------------------------------------------------------------------------|
B--------------------------------------------------------------------------------|
G--------------------------------------------------------------------------------|
D--4----4--4----4--2----2--2----2------0--0--0---------0----0--0----0---0----0---|
A----2-------2-------0-------0----4-5-4--4--4--4---0--2----2------2--------2-----|
E--------------------------------------------------------------------------------|
PLAY 5x

e---------------------------------------------------------------------------------|
B---------------------------------------------------------------------------------|
G-------4---4---2---2-------------------------------------------------------------|
D--0------4---4---2---2--2--2--2-2--4h--4----0----0---0----0---0----0-------------|
A----0--------------------------------------2----2--------2--------2--------------|
E---------------------------------------------------------------------------------|

e---------------------------------------------------------------------------------|
B---------------------------------------------------------------------------------|
G---------------------------------------------------------------------------------|
D--4----4--4----4--2----2--2----2------0--0--0---------0----0--0----0---0----0----|
A----2-------2-------0-------0----4-5-4--4--4--4---0--2----2------2--------2------|
E---------------------------------------------------------------------------------|


e---------------------------------------------------------------------------------|
B---------------------------------------------------------------------------------|
G---------------------------------------------------------------------------------|
D--4----4--4----4--2----2--2----2------0--0--0------------------------------------|
A----2-------2-------0-------0----4-5-4--4--4--4---0--2---------------------------|
E---------------------------------------------------------------------------------|

Keep It Healthy

Chorus

e------------------------------------------------------------------------------------|
B------3-----3--------------0-----0----0----3-----3----3-------------3----0----------|
G----4-----4--------------0-----0----0----4-----4----4-----0---0---4----0----0----0--|
D--4-----0------0---0---------2----0----4-----5----4-----0---2---4----2----0---------|
A-------------4---0----2---------------------------------------------------------4---|
E------------------------------------------------------------------------------------|
PLAY 4x

Verse

e----------------------------------------------------------------------------------|
B-3--3--3--3--3--3--3--3--3----3----3----3----3----3----3--------------------------|
G-4--4--4--4--4--4--4--4----4----4----4----4----4----4----4------------------------|
D-4--4--4--4--4--4--4--4------4----4----4----4----4----4----4----------------------|
A----------------------------------------------------------------------------------|
E----------------------------------------------------------------------------------|

Chorus

e------------------------------------------------------------------------------------|
B------3-----3--------------0-----0----0----3-----3----3-------------3----0----------|
G----4-----4--------------0-----0----0----4-----4----4-----0---0---4----0----0----0--|
D--4-----0------0---0---------2----0----4-----5----4-----0---2---4----2----0---------|
A-------------4---0----2---------------------------------------------------------4---|
E------------------------------------------------------------------------------------|
PLAY 2x

Verse

e-----------------------------------------------------------------------------------|
B-3--3--3--3--3--3--3--3--3----3----3----3----3----3----3---------------------------|
G-4--4--4--4--4--4--4--4----4----4----4----4----4----4----4-------------------------|
D-4--4--4--4--4--4--4--4------4----4----4----4----4----4----4-----------------------|
A-----------------------------------------------------------------------------------|
E-----------------------------------------------------------------------------------|

Bridge

e---------------------------------------------------------------------------------|
B---------------------------------------------------------------------------------|
G---------------------------------------------------------------------------------|
D---0---0---0----0---0----0---4----4---4-----4---2----2---2----2-------0--0--0----|
A2---2--------2--------2--------2---------2--------0--------0----4-5--4--4--4--4--|
E---------------------------------------------------------------------------------|
PLAY 5x

e-----------------------------------------------------------------------------------|
B------3----3----3----3----3----4----4----4----4---4/5----5----5----5----5----5\4---|
G----4----4----4----4----4----4----4----4----4---4/5----5----5----5----5----5\4-----|
D--4----4----4----4----4----4----4----4----4---4/5----5----5----5----5----5\4-------|
A-----------------------------------------------------------------------------------|
E-----------------------------------------------------------------------------------|

e-----------------------------------------------------------------------------------|
B------4----4----4----4----4-----------3----3-----------3----0----------------------|
G----4----4----4----4----4-----------4----4----0--0---4----0----0---0---------------|
D--4----4----4----4----4-----2--4--5----4----0--2---4----2----0---------------------|
A------------------------------------------------------------------4----------------|
E-----------------------------------------------------------------------------------|

Verse

e------------------------------------------------------------------------------------|
B-3--3--3--3--3--3--3--3--3----3----3----3----3----3----3----------------------------|
G-4--4--4--4--4--4--4--4----4----4----4----4----4----4----4--------------------------|
D-4--4--4--4--4--4--4--4------4----4----4----4----4----4----4------------------------|
A------------------------------------------------------------------------------------|
E------------------------------------------------------------------------------------|

Chorus

e------------------------------------------------------------------------------------|
B------3-----3--------------0-----0----0----3-----3----3-------------3----0----------|
G----4-----4--------------0-----0----0----4-----4----4-----0---0---4----0----0----0--|
D--4-----0------0---0---------2----0----4-----5----4-----0---2---4----2----0---------|
A-------------4---0----2---------------------------------------------------------4---|
E------------------------------------------------------------------------------------|
PLAY 3x

Last repeat is played this way
e------------------------------------------------------------------------------------|
B------3-----3--------------0-----0----0----3-----3----3-------------3----0----------|
G----4-----4--------------0-----0----0----4-----4----4-----0---0---4----0----0-------|
D--4-----0------0---0---------2----0----4-----5----4-----0---2---4----2----0---------|
A-------------4---0----2---------------------------------------------------------4\2-|
E------------------------------------------------------------------------------------|

Hope you enjoy!
-Nerissabee
Tap to rate this tab
# A B C D E F G H I J K L M N O P Q R S T U V W X Y Z