Song name
# A B C D E F G H I J K L M N O P Q R S T U V W X Y Z

Warpaint - Undertow tab

-------------------------------------------------------------------------------
			     Undertow - Warpaint
-------------------------------------------------------------------------------

I got this by watching a few different videos of them playing live so i'm not if I've 
got the structure of the song right buuuuutt you get the idea. :)

intro

e|---x----x---------x----x-----------------------------------------------------|
B|---x----x---------x----x-----------------------------------------------------|
G|--11----4--X2---- 2----4-----------------------------------------------------|
D|---0----2---------0----2-----------------------------------------------------|
A|---x----x---------x----x-----------------------------------------------------|
E|---x----x---------x----x-----------------------------------------------------|

Verse - no guitar (same as intro if you want to play along)

Chorus

e|---x----x----------x-----x----------------------------------------------------------|
B|---x----x----------x-----x----------------------------------------------------------|
G|--11----6---------11----4-----------------------------------------------------------|
D|---0----4---X2-----0----2---X4------------------------------------------------------|
A|---x----x----------x---- x----------------------------------------------------------|
E|---x----x----------x-----x----------------------------------------------------------|

Verse - no guitar (same as intro if you want to play along)

Chorus X2

Bridge X2

e|---5---2----------9---7---5---4-----------------------------------------------------|
B|---7---2----------7---7---7---5-----------------------------------------------------|
G|---6---2---X2-----7---7---6---6-----------------------------------------------------|
D|---7---0----------0---0---7---0-----------------------------------------------------|
A|---0---2----------0---0---0---0-----------------------------------------------------|
E|---5---2----------7---7---5---4-----------------------------------------------------|

 Then i think theres a solo/different riffs and another verse and chorus. haven't worked 
out the solo yett thoughhh.
************************************

| /   slide up
| \   slide down
| h   hammer-on
| p   pull-off
| ~   vibrato
| +   harmonic
| x   Mute note
| b   Bend
| pb  Pre-bend
| br  Bend release
| pbr Pre-bend release
| brb Bend release bend

************************************
Tap to rate this tab
 
# A B C D E F G H I J K L M N O P Q R S T U V W X Y Z