Song name
# A B C D E F G H I J K L M N O P Q R S T U V W X Y Z

Warpaint - Set Your Arms Down tab

-------------------------------------------------------------------------------
			     SET YOUR ARMS DOWN - Warpaint
-------------------------------------------------------------------------------

| /   Slide up
| \   Slide down
| h   Hammer-on
| x   Muted
| ~   Vibrato
| !   Slap the Strings w/ Picking Hand
| *   Strum
| R   Rest (Silence the Strings)
| .   PM
| ... Listen to Song for Rhythm

*Note*

This tab is intended for a solo guitarist, and hence, I've tabbed both the Bass 
and the Guitar sections, striving to render the former appropriate for the latter.

Intro.
e|------!-|---------------------|
B|------!-|---------------------|
G|------!-|---------------------|
D|-3----!-|-3---3h5-5---5---0---|  x5
A|-5------|-5---5---3---3---5---|
E|--------|---------------------|

Verse - Same as Intro. - x8

Verse Pt. 2 - 1:02 					Transition - 1:59
|-5~--------------------------------------------|    |-----------|
|----5~----------5-6~--5~---5-------------------|    |-----------|
|-------7~-5~-7~--7--------7-7-5-----------5-7~-|    |---7-------|
|-------------------------------7~--5~--7~--5---| x6 |-----7---0-|
|-----------------------------------------------|    |-5-----5---|
|-----------------------------------------------|    |-----------|

Chorus - 1:59
|--------------|-------------|
|--------------|-------------|
|--------------|-7*----9*----|
|-8*----10*----|-7*----7*----|  x4 (Vocals after x2)
|-8*----8*-----|-5*----5*----|
|-6*----6*-----|-------------|

Verse 2 - 2:36
|-------------------|----------------|
|----------------5--|----------------|
|-5-5-7-7-5-5-5-----|-5-5-7-7-5-5-5R-|
|--7-7-7-7-7-7------|--7-7-7-7-7-7---|  x3
|-------------------|----------------|
|-------------------|----------------|

Bridge - 3:02
|-----|    |-----------------------------------|
|-----|    |-----------------------------------|
|-5/7-|    |-/7-7-7-10-7-7-10-7-7-10-7-7-5-5-5-|
|-x-x-| x1 |-/x-x-x-x--x-x-x--x-x-x--x-x-x-x-x-|  x4
|-3/5-|    |-/5-5-5-8--5-5-8--5-5-8--5-5-3-3-3-|
|-----|    |-----------------------------------|
              . . . .  . . .  . . .  . . . . .

Bridge Pt. 2 - 3:19
|------------------|------------------|
|---5--5--5--5--55-|---5--5--6--6--5~-|
|--5--5--5--5--5---|--5--5--5-55-55---|
|-7--7--7--7--7----|-7--7--7----------| x2
|------------------|------------------|
|------------------|------------------|

Bridge Pt. 3 - 3:36
|------------------------------------|    |---------------------------------------|
|------------------------------------|    |---------------------------------------|
|-2-2-2-2--0-2-2--0-2-2--0-2-2-0-0-0-|    |-2-2-2-2-0-0-0-0-0-0-0-0-0-0--0--0--0--|
|-0-0-0-0-/3-0-0-/3-0-0-/3-0-0-x-x-x-| x2 |-0-0-0-0-3-3-3-3/5-5-5-5-5/10-10-10-10-| x2
|------------------------------3-3-3-|    |---------------------------------------|
|------------------------------------|    |---------------------------------------|

Bridge Pt. 4 - 3:54 
|------------------------------------------------------------------|---------------|
|------------------------------------------------------------------|---------------|
|-19-19-19-19-19-19-17-17-17-17\12-12-12-/14-14-14-14-14-14-14-14R-|-7-7-7-7-7-7-7-|
|------------------------------------------------------------------|---------------|
|------------------------------------------------------------------|---------------|
|------------------------------------------------------------------|---------------|

|------------------------------------------------------------------------------|
|------------------------------------------------------------------------------|
|-/19-19-19-19-19-19-17-17-17-17\12-12R--12-12R-12/14~--14-14R--14-14R--14-14R-|
|------------------------------------------------------------------------------|
|------------------------------------------------------------------------------|
|------------------------------------------------------------------------------|

Bridge Pt. 5 - 4:10
|------------------------------------|
|------------------------------------|
|-2-2-2-2--0-2-2--0-2-2--0-2-2-0-0-0-|  
|-0-0-0-0-/3-0-0-/3-0-0-/3-0-0-x-x-x-|  x4
|------------------------------3-3-3-|     
|------------------------------------|

Bridge Pt. 6 - 4:26 (Listen to Song for Rhythm)
|----------------------------------|---------------------------------|
|----------------------------------|---------------------------------|
|-14141414-14-14141414-14-141414...|-17...---19...---12...---14...---|
|----------------------------------|---------------------------------|
|----------------------------------|---------------------------------|
|----------------------------------|---------------------------------|

Outro - 4:43
|---------------------------------------------------------------|
|----------------------5--------------5--------------5----------|
|---5-7~-7-5-------5-7---7-5------5-7---7-5------5-7---7-5------|
|-7----------5~--5-----------5-7~-----------7~-7-----------5-7~-|
|---------------------------------------------------------------|
|---------------------------------------------------------------|

Out on the back porch, you stay tonight.
We bring a pocket, of pocket knives.
You want to fight me, you want to fight.
Forgotten sense of me, say ah say ah...

And in the backyard, into the night.
We walk through fire, my love is your flashlight.
They want to fight me, they want to fight.
Forgotten sense of me, say ah say ah... 

ah-ah-ah-ah-ahhhh... - x2

Walk through the fire, walk 'til it gets light.
There is no hiding, to save your life

You've got to try,
say you'll mean it.
Set your arms down.

Ahhhhh-ah... - x2 (Bridge Pt. 3)
Ahhhhh-ah... - x2 (Bridge Pt. 4)

Say ah say ah... - x4 (Bridge Pt. 6)
Tap to rate this tab
# A B C D E F G H I J K L M N O P Q R S T U V W X Y Z