Song name
# A B C D E F G H I J K L M N O P Q R S T U V W X Y Z

Warrant - I Saw Red tab

-------------------------------------------------------------------------------
                             I Saw Red - Warrant
-------------------------------------------------------------------------------
Tabbed by:Easton Seidel
E-mail:herrimanhockey57@gmail.com

Tuning:Standard

| h = hammer-on
| p = pull-off

This is my first tab I'm not sure what variation of C this is but its what I used 
opposed to standard C


********
   C??
e|-3-|
B|-3-|
G|-0-|
D|-2-|
A|-3-|
E|---|

********





Intro:

e|-------3---2---3-----------3---2---3---------3p2------2-3-------3-----3--3---|
B|---------3---3---3-----------3---3---3-----3------3---------------3---3--3---|
G|-----0------------------0----------------2----------2---------0-------0--0---|
D|---2------------------2----------------0--------------------2---------2--2---|
A|-3--------------------------------------------------------3-----------3--3---|
E|--------------------0--------------------------------------------------------|



    Oo it must be magic how inside your eyes I see my destiny

e|-------------0-----------0--------------0--------2x--------------0--0--0-----|
B|-----------3-----------3--------------3----------3x--------------1--1--1-----|
G|---------0-----------2--------------0------------2x----------0---0--0--0-----|
D|-----------------0----------------------------0------------2-----2--2--2-----|
A|--------------------------------2------------------------3-------3--3--3-----|
E|----3------------------------------------------------------------------------|


  Every time we kiss I feel you breathe your love so deep inside of me


e|-------------0-----------0--------------0--------2---------------0--0--0-----|
B|-----------3-----------3--------------3----------3---------------1--1--1-----|
G|---------0-----------2--------------0------------2-----------0---0--0--0-----|
D|-----------------0----------------------------0------------2-----2--2--2-----|
A|--------------------------------2------------------------3-------3--3--3-----|
E|----3------------------------------------------------------------------------|


            Em                       A             C           G
     
   If the moon and stars should fall they'd be easy to replace

             Em              A         C                     G   
      
   I would lift you up to heaven and you would take their place

                                             

   Then I saw red       when I opened up the door

e|------0--3--2--3p2---3h2---------------3--------|
B|------0--3--3-----3----------------------3------|
G|------0--0--2------2-----------------0----------|
D|------2--0--0---------------------2-------------|
A|------2--2---------------------3----------------|
E|------0--3--------------------------------------|

   I saw red        my heart just spilled onto the floor

e|-0--3--2--3p2---3h2---------------3------------------3----|
B|-0--3--3-----3----------------------3------------------3--|
G|-0--0--2------2-----------------0------------------0------|
D|-2--0--0---------------------2-------------------2--------|
A|-2--2---------------------3--------------------2----------|
E|-0--3-----------------------------------------------------|

            And I didn't need to see his face

e|--------------------------------3---------------3----|
B|---------3p2-----2h3--------------3---------------3--|
G|-------2-----2----------------0---------------0------|
D|-----2---------2-----------2----------------2--------|
A|---0--------------------3-----------------2----------|
E|-----------------------------------------------------|

                               I saw yours

e|--------------------------------3----3---|
B|---------3p2-----2h3--------------3--3---|
G|-------2-----2----------------0------0---|
D|-----2---------2-----------2---------2---|
A|---0--------------------3------------3---|
E|-----------------------------------------|

  C                     D                G

     I saw red and then I closed the door
  
               C               D

     I don't think I'm gonna love you anymore



e|-------3---2---3-----------3---2---3---------3p2------2-3-------3-----3--3---|
B|---------3---3---3-----------3---3---3-----3------3---------------3---3--3---|
G|-----0------------------0----------------2----------2---------0-------0--0---|
D|---2------------------2----------------0--------------------2---------2--2---|
A|-3--------------------------------------------------------3-----------3--3---|
E|--------------------0--------------------------------------------------------|

  Everyday I wake up I thank God that you are still a part of me
              
e|-------------0-----------0--------------0--------2x--------------0--0--0-----|
B|-----------3-----------3--------------3----------3x--------------1--1--1-----|
G|---------0-----------2--------------0------------2x----------0---0--0--0-----|
D|-----------------0----------------------------0------------2-----2--2--2-----|
A|--------------------------------2------------------------3-------3--3--3-----|
E|----3------------------------------------------------------------------------|

  We've opened up the door to which so many people never find the key

e|-------------0-----------0--------------0--------2x--------------0--0--0-----|
B|-----------3-----------3--------------3----------3x--------------1--1--1-----|
G|---------0-----------2--------------0------------2x----------0---0--0--0-----|
D|-----------------0----------------------------0------------2-----2--2--2-----|
A|--------------------------------2------------------------3-------3--3--3-----|
E|----3------------------------------------------------------------------------|

  Em          A           C                      G              

  And if the sun should ever fail to send its light

  Em                           A                C             G

  We would burn a thousand candles and make everything alright



        I saw red       when I opened up the door

e|------0--3--2--3p2---3h2---------------3--------|
B|------0--3--3-----3----------------------3------|
G|------0--0--2------2-----------------0----------|
D|------2--0--0---------------------2-------------|
A|------2--2---------------------3----------------|
E|------0--3--------------------------------------|

   I saw red        my heart just spilled onto the floor

e|-0--3--2--3p2---3h2---------------3------------------3----|
B|-0--3--3-----3----------------------3------------------3--|
G|-0--0--2------2-----------------0------------------0------|
D|-2--0--0---------------------2-------------------2--------|
A|-2--2---------------------3--------------------2----------|
E|-0--3-----------------------------------------------------|

            And I didn't need to see his face

e|--------------------------------3---------------3----|
B|---------3p2-----2h3--------------3---------------3--|
G|-------2-----2----------------0---------------0------|
D|-----2---------2-----------2----------------2--------|
A|---0--------------------3-----------------2----------|
E|-----------------------------------------------------|

                               I saw yours

e|--------------------------------3----3---|
B|---------3p2-----2h3--------------3--3---|
G|-------2-----2----------------0------0---|
D|-----2---------2-----------2---------2---|
A|---0--------------------3------------3---|
E|-----------------------------------------|

  C                     D                G

     I saw red and then I closed the door
  
               C               D

     I don't think I'm gonna love you anymore



e|-------3---2---3-----------3---2---3---------3p2------2-3-------3-----3--3---|
B|---------3---3---3-----------3---3---3-----3------3---------------3---3--3---|
G|-----0------------------0----------------2----------2---------0-------0--0---|
D|---2------------------2----------------0--------------------2---------2--2---|
A|-3--------------------------------------------------------3-----------3--3---|
E|--------------------0--------------------------------------------------------|

  C                              Em         

  I've been hurt and I've been blind

                              D                      C                               

  I'm not sure that I'll be fine I never thought it would end this way



        I saw red       when I opened up the door

e|------0--3--2--3p2---3h2---------------3--------|
B|------0--3--3-----3----------------------3------|
G|------0--0--2------2-----------------0----------|
D|------2--0--0---------------------2-------------|
A|------2--2---------------------3----------------|
E|------0--3--------------------------------------|

   I saw red        my heart just spilled onto the floor

e|-0--3--2--3p2---3h2---------------3------------------3----|
B|-0--3--3-----3----------------------3------------------3--|
G|-0--0--2------2-----------------0------------------0------|
D|-2--0--0---------------------2-------------------2--------|
A|-2--2---------------------3--------------------2----------|
E|-0--3-----------------------------------------------------|

            And I didn't need to see his face

e|--------------------------------3---------------3----|
B|---------3p2-----2h3--------------3---------------3--|
G|-------2-----2----------------0---------------0------|
D|-----2---------2-----------2----------------2--------|
A|---0--------------------3-----------------2----------|
E|-----------------------------------------------------|

                               I saw yours

e|--------------------------------3----3---|
B|---------3p2-----2h3--------------3--3---|
G|-------2-----2----------------0------0---|
D|-----2---------2-----------2---------2---|
A|---0--------------------3------------3---|
E|-----------------------------------------|

  C                     D                G

     I saw red and then I closed the door
  
               C               D

     I don't think I'm gonna love you anymore



e|-------3---2---3-----------3---2---3---------3p2------2-3-------3-----3-----|
B|---------3---3---3-----------3---3---3-----3------3---------------3---3-----|
G|-----0------------------0----------------2----------2---------0-------0-----|
D|---2------------------2----------------0--------------------2---------2-----|
A|-3--------------------------------------------------------3-----------3-----|
E|--------------------0-------------------------------------------------------|


     Oo it must be magic
Tap to rate this tab
 
# A B C D E F G H I J K L M N O P Q R S T U V W X Y Z