Song name
# A B C D E F G H I J K L M N O P Q R S T U V W X Y Z

Warren G - Regulate tab

As heard here:https://www.youtube.com/watch?v=tWlgZ6ZD4V0

-------------------------------------------------------------------------------
                             Regulate - Warren G
-------------------------------------------------------------------------------
Tabbed by:yesmandroc
E-mail:yesmandroc@yahoo.com

Tuning:e B G D A E

<> indicates natural harmonic

Intro

e|<12>|----------------------|-------------------------|--------------------|
B|<12>|----------------------|-------------------8^7---|--------------------|
G|<12>|-----9--7-9---9-9-7--9|--9--7-9---7-9-9------7-9|-9--7-9--9-9--7-9---|
D|----|----------------------|-------------------------|--------------------|
A|----|----------------------|-------------------------|--------------------|
E|----|<12>------------------|-------------------------|--------------------|
                                        Verse
e|------------------------------------|-------------|-------------5---------|
B|--<12>-<12>-<12>-<12>-<12>-<12>-<5>o|o8-----------|----------9--7-----8---|
G|--<12>-<12>-<12>-<12>-<12>-<12>-<5>-|-7-----------|----------7--7-----9---|
D|------------------------------------|-9-----------|----------9--------9---|
A|-----------------------------------o|o7--7-----7--|--7----7--7----7-------|
E|------------------------------------|0-----0-----0|-----0-----------------|


e|--------------------2-----|--------------------------------------------------|
B|-----------8-7-5-3--3--8-o|--------------------------------------------------|
G|-----------9-7-5-4--2--7--|--------------------------------------------------|
D|-----------9-7-5-4-----9--|--------------------------------------------------|
A|-----------------------7-o|--------------------------------------------------|
E|8---8-8----8-7-5-3--2-----|--------------------------------------------------|
Tap to rate this tab
# A B C D E F G H I J K L M N O P Q R S T U V W X Y Z