Song name
# A B C D E F G H I J K L M N O P Q R S T U V W X Y Z

Warren Zevon - Ill Sleep When Im Dead tab

So much to do theres plenty on the farm. . . . .
e|----------------------------------------------------------|
b|---------0-------0------------0---------------------------|
g|---------4~~-----4------------4---------------------------|
d|----------------------------------------------------------|
a|------2---------2------------2----------------------------|
E|----------------------------------------------------------| ......

Ill sleep when im dead

|--------------------------------------|
|--------------------------------------|
|--------------------------------------|
|--------------------------------------|
|---5/7-------5-----3------------------|
|--------------------5--3--5-----------|

(inbetween each verse I THINK!)

|--------------------------------|
|--------------------------------|
|--------------------------------|
|--------------------------------|
|-----------5/7-5-3~~------------|
|--3-----5-----------------------|


for a solo

|-----------------------------------|
|-----------------------------------|
|---7^9p5 7^9p5 7^9p5 7^9p5---------|
|---------------------------5--7----|
|-----------------------------------|
|-----------------------------------|

  do that a few times n yeah,
Tap to rate this tab
 
# A B C D E F G H I J K L M N O P Q R S T U V W X Y Z