Song name
# A B C D E F G H I J K L M N O P Q R S T U V W X Y Z

Warren Zevon - Werewolves Of London tab

-------------------------------------------------------------------------------
			     Warren Zevon - Werewolves Of London
-------------------------------------------------------------------------------
Tabbed by:escapedmonk
Email:escapedmonk@hotmail.com

Tuning:Standard

    Did this as a kind of mix of the guitar and piano its very basic and great to play 
also great to improvise with, solo it already on the site.

  Intro

e|-7--5---5--3--------3-3-3-3---|
B|--------------------3-3-5-3---|
G|-7------5---------------------|
D|------------------------------|
A|------------------------------|
E|------------------------------|


  Main Riff

e|----------------------------------------------------|
B|------------------------7-----------5---------------|
G|------------------------7-----------5---------------|
D|-----------------9--7---7----7--5---5---------------|
A|------------5----5--5--------3--3-------5-5-7-5-----|
E|-3--5 / 7-------------------------------3-3-3-3-----|


   chorus

e|---------------------------------------------------------------|
B|------------------------7\-----------5\-------- / 12-12-13-12--|
G|------------------------7\-----------5\-------- / 12-12-12-12--|
D|-----------------9--7---7\----7--5---5\-------- / 12-12-14-12--|
A|------------5----5--5---------3--3-----------------------------|
E|-3--5 / 7------------------------------------------------------|


************************************

 /   slide up
 \   slide down
Tap to rate this tab
 
# A B C D E F G H I J K L M N O P Q R S T U V W X Y Z