Warren Zevon - Lifell Kill Ya tab

Tab by: Alex

Tuning: Standard

INTRO

e|--12-10-12-14-15-14-12-10-10-----------------------------------------------|
B|-----------------------------12-10-8-10-8-10-12----------------------------|
G|---------------------------------------------------------------------------|
D|---------------------------------------------------------------------------|
A|---------------------------------------------------------------------------|
E|---------------------------------------------------------------------------|

e|--12-10-12-14-15-14-12-10-10-----------------------------------------------|
B|-----------------------------12-10-8-10-8~---------------------------------|
G|---------------------------------------------------------------------------|
D|---------------------------------------------------------------------------|
A|---------------------------------------------------------------------------|
E|---------------------------------------------------------------------------|


Verse:

G                       A      G
You've got an invalid haircut
G/B                  A       G
And it hurts when you smile
G/B                   A       G
You'd better get out of town
G/B                    A       G
Before your nickname expires
G/B                    A       G
It's the kingdom of the spiders
G/B                   A         G
It's the empire of the ants
G/B                   A            G/B              G
You need a permit to walk around downtown
G/B                                G
You need a license to dance

CHORUS

  B                              G                         
Life'll        kill           ya


e|------------------------------3--------------------------------------------|
B|------------------------------3--------------------------------------------|
G|------------------------------0--------------------------------------------|
D|---2--2-----------------------0--------------------------------------------|
A|---2--2-----------------------2--------------------------------------------|
E|---0--0--3~----------1h3p0----3--------------------------------------------|


That's what I said

G

Life'll kill ya


             A           G
Then you'll be dead



Life'll find ya



Wherever you go


           C            C/G
Requiesce in pace


   G/C                G
That's all she wrote










From the President of the United States
To the lowliest rock and roll star
The doctor is in and he'll see you now
He don't care who you are
Some get the awful, awful diseases
Some get the knife, some get the gun
Some get to die in their sleep
At the age of a hundred and one



Life'll kill ya
That's what I said
Life'll kill ya
Then you'll be dead
Life'll find ya
Wherever you go
Requiescat in pace
That's all she wrote



Maybe you'll go to heaven


See Uncle Al and Uncle Lou


Maybe you'll be reincarnated
Maybe that stuff's true
If you were good
Maybe you'll come back as someone nice
And if you were bad
Maybe you'll have to pay the price




Life'll kill ya
That's what I said
Life'll kill ya
Then you'll be dead
Life'll find ya
Wherever you go
Requiescat in pace
That's all she wrote




************************************

| /   slide up
| \   slide down
| h   hammer-on
| p   pull-off
| ~   vibrato
| +   harmonic
| x   Mute note
| b   Bend
| pb  Pre-bend
| br  Bend release
| pbr Pre-bend release
| brb Bend release bend

************************************
Tap to rate this tab
 
# A B C D E F G H I J K L M N O P Q R S T U V W X Y Z