Song name
# A B C D E F G H I J K L M N O P Q R S T U V W X Y Z

Warren Zevon - Indifference Of Heaven tab

-------------------------------------------------------------------------------
                             The Indifference Of Heaven - Warren Zevon
-------------------------------------------------------------------------------

Tabbed by: Skilly

E-mail: skilly06@gmail.com

Tuning: Double drop d plus capo 3rd fret

You'l need to use your ear to get a feel for the rhythm, these are just the fingerings 
of each chord and the basic structure of the song, hope

this helps

Verse 1 & 2 (repeat twice) (Intro same as 1st bar)



d|----0------0-----0------0-------0---------------|
B|----3------3-----3------3-------3---------------|
G|----2------2-----2------0-------2---------------|
D|----2------4-----0------0-------0---------------|  x3 when lyrics begin
A|----0------0-----0------2-------0---------------|
D|----0------0-----0------0-------0---------------|

d|----0------0-----0------0-------0-------0-------|
B|----3------3-----3------3-------3-------3-------|
G|----2------2-----2------0-------2-------2-------|  x1
D|----2------4-----0------0-------0-------x-------|
A|----0------0-----0------2-------0-------4-------|
D|----0------0-----0------0-------0---------------|

d|----0------0-----0------0-------0-------0-------|
B|----3------3-----3------3-------3-------3-------|
G|----2------2-----2------2-------2-------2-------|  x1
D|----4------2-----0------0-------2-------4-------|
A|----1------0-----0------0-------0-------0-------|
D|-----------0-----0------0-------0-------0-------|

d|----0------0-----0------*-------0---------------|
B|----3------3-----3------*-------3---------------|
G|----0------2-----2------*-------2---------------|  x1
D|----0------0-----2------*-------0---------------|
A|----2------0-----0------*-------0---------------|
D|----0------0-----0------*-------0---------------|

Then play this at the end of verse 2 ( * means end of verse two )

d|----0------0-----0------------------------------|
b|----3------3-----3------------------------------|
G|----2------2-----2------------------------------|
D|----4------2-----0------------------------------|
A|----0------0-----0------------------------------|
D|----0------0-----0------------------------------|

d|----0------0-----0------0-----------------------|
B|----3------3-----3------3-----------------------|
G|----2------2-----2------2-----------------------|
D|----4------4-----2------0-----------------------|
A|----1------0-----0------0-----------------------|
D|-----------------0------0-----------------------|

d|----0------0-----0------0-----------------------|
B|----3------3-----3------3-----------------------|
G|----2------2-----2------2-----------------------| x2
D|----0------2-----4------0-----------------------|
A|----0------0-----0------0-----------------------|
D|----0------0-----0------0-----------------------|

d|----0------0-----0------------------------------|
B|----3------3-----3------------------------------|
G|----0------2-----2------------------------------|
D|----0------2-----0------------------------------|
A|----2------0-----0------------------------------|
D|----0------0-----0------------------------------|

d|----0------0-----0------------------------------|
B|----3------3-----3------------------------------|
G|----0------2-----2------------------------------|
D|----0------0-----2------------------------------|
A|----2------0-----0------------------------------|
D|----0------0-----0------------------------------|

d|----0------0-----0------0-----------------------|
B|----3------3-----3------3-----------------------|
G|----2------2-----2------0-----------------------|
D|----0------2-----4------0-----------------------|
A|----0------0-----0------2-----------------------|
D|----0------0-----0------0-----------------------|

d|----0------0-----0------------------------------|
B|----3------3-----3------------------------------|
G|----2------2-----2------------------------------|
D|----0------2-----0------------------------------|
A|----0------0-----0------------------------------|
D|----0------0-----0------------------------------|


Then play intro/verse again until interlude below

d|----0------0-----0------0--------0--------------|
B|----3------3-----3------3--------3--------------|
G|----2------0-----2------2--------2--------------|
D|----0------0-----2------4--------2--------------|
A|----0------2-----0------0--------0--------------|
D|----0------0-----0------0--------0--------------|
Tap to rate this tab
# A B C D E F G H I J K L M N O P Q R S T U V W X Y Z