Song name
# A B C D E F G H I J K L M N O P Q R S T U V W X Y Z

Warren Zevon - My Shits Fucked Up tab

My Shit's Fucked Up by Warren Zevon

Album: Life'll Kill Ya

The tuning for this song: DADGAd (EADGBe)

Just to give you an idea of the song:

d|--------------------|-------------------------|
A|--------------------|---------0-3p0-----------|
G|-2-0-2---2p0---0--0-|-2-0-2-----------------0-|
D|-------0-----3---3--|-------0-------3p0---0---|
A|--------------------|-------------------1-----|
D|-3-3-3--------------|-3-3-3-------------------|

d|--------------------|-------------------------|
A|--------------------|---------------------0---|
G|-2-0-2---2p0---0--0-|-2------0-----0----------|
D|-------0-----3---3--|---0-3p0----0------0---0-|
A|--------------------|-------------------------|
D|-3-3-3--------------|-0--------5----3p0-------|

d|------------------------------------------------------------|
A|---0-3p0-------------------------0----------------------0---|
G|-----------------0---------0---------------0-----0----------|
D|-0-------3p0---0---------0-----0-----0-3p0-----0------0-----|
A|-------------1-----1-0--------------------------------------|
D|-----------------------5-----3-----0---------5----3p0-----0-|

d|-------------------------------------------------------------|
A|--------------------0----0-3p0-----------------------0-------|
G|-------0-----0-------------------------0--------0----------0-|
D|-0-3p0-----0------0----0-------3p0---0--------0----0-----0---|
A|-----------------------------------1----1-0------------------|
D|---------5----3p0----0----------------------5----3-----0-----|

d|-----------|
A|-----------|
G|-------0---|
D|-----0-----|
A|-----------|
D|-3/5-----0-|

If you know the song, its quite easy to figure out which parts goes where. But just play 
the tabs through the entire song

Verse 1:

Well, I went to the doctor
I said, "I'm feeling kind of rough"
"Let me break it to you, son
Your shit's fucked up"

Verse 2:

I said, "My shit's fucked up?
Well I don't see how"
He said, "The shit that used to work
It won't work now"


Verse 3:

I, I had a dream
Ah shucks, oh well
Now it's all fucked up
It's shot to hell


Bridge:

Yeah, yeah, my shit's fucked up
It has to happen to the best of us
The rich folks suffer like the rest of us
It'll happen to you


Verse 4:

That Amazing Grace
Sort of passed you by
You wake up every day
And you start to cry


Verse 5:

You wanna die
But you just can't quit
Let me break it on down
It's the fucked up shit

Yeah my shit's fucked up
       Fucked up
Tap to rate this tab
 
# A B C D E F G H I J K L M N O P Q R S T U V W X Y Z