Song name
# A B C D E F G H I J K L M N O P Q R S T U V W X Y Z

Warren Zevon - Jeannie Needs A Shooter tab

         --------------------------------------------------------------
                             Jeannie Needs A Shooter - Warren Zevon
         -------------------------------------------------------------
Tabbed by:Nick V.
E-mail:BlindTerry333@gmail.com
 
Tuning:EADGBE

Intro


e|-12----12---12-----12--12-----------9--9--9--9--9--9----7----------------|
B|----12---12----12---------12--------10-10-10-10-10-10---7----------------|
G|-------------------------------------------------------------------------|
D|-------------------------------------------------------------------------|
A|-------------------------------------------------------------------------|
E|-------------------------------------------------------------------------|

Chorus

"Jeannie needs a shooter, a shooter like me."

e|-------------------------------------------------------------------------|
B|-10--9--10--9--10--9--10--9---7--5--9------------------------------------|
G|-11--9--11--9--11--9--11--9---8--6--9------------------------------------|
D|-9---9--9---9--9---9--9---9---9--7--9------------------------------------|
A|-------------------------------------------------------------------------|
E|-------------------------------------------------------------------------|

"Jeannie needs a shooter."

e|-------------------------------------------------------------------------|
B|-10--9--10--9--10--9--10--9---7------------------------------------------|
G|-11--9--11--9--11--9--11--9---8------------------------------------------|
D|-9---9--9---9--9---9--9---9---9------------------------------------------|
A|-------------------------------------------------------------------------|
E|-------------------------------------------------------------------------|

"Jeannie needs a shooter, a shooter on her side."

e|-------------------------------------------------------------------------|
B|-10--9--10--9--10--9--10--9---7--5--9------------------------------------|
G|-11--9--11--9--11--9--11--9---8--6--9------------------------------------|
D|-9---9--9---9--9---9--9---9---9--7--9------------------------------------|
A|-------------------------------------------------------------------------|
E|-------------------------------------------------------------------------|

"Jeannie needs a shooter."

e|-------------------------------------------------------------------------|
B|-10--9--10--9--10--9--10--9---7------------------------------------------|
G|-11--9--11--9--11--9--11--9---8------------------------------------------|
D|-9---9--9---9--9---9--9---9---9------------------------------------------|
A|-------------------------------------------------------------------------|
E|-------------------------------------------------------------------------|

Chords...

E  A  B

E                       A                            E  
I was born down by the river where the dirty water flows
                       A                                     E  
And the cold wind cut through me; it cut right through my clothes
                       A                           E    
And the anger and the yearning, like fever in my veins
E            A       E
Set the fire burning 

Chorus:
E                B        A            E
Jeannie needs a shooter, shooter like me
E                B        
Jeannie needs a shooter
E                B        A              E
Jeannie needs a shooter, shooter on her side
E                B        Intro
Jeannie needs a shooter


Questions, comments, insults..BlindTerry333@gmail.com
Tap to rate this tab
# A B C D E F G H I J K L M N O P Q R S T U V W X Y Z