Song name
# A B C D E F G H I J K L M N O P Q R S T U V W X Y Z

Warren Zevon - Prison Grove tab

Help us improve GuitareTab! Take a short survey!
--------------------------------------------------------
	     prison grove - warren zevon
--------------------------------------------------------
Tabbed by:Ev
Email:evrodden@hotmail.com

Tuning:EADGBe

most of the song can be and is played over 
this little tune in E minor
e|----------------------------------------------|
B|----------------------------------------------|
G|-----------2-2-2-0------------------2-2-2-0---|
D|0-2-5p2-2-2-------2-2----0-2-5p2-2-2-------2-2|
A|-----------------------2----------------------|
E|----------------------------------------------|
sometimes it has different end phrases like:

e|----------------------------------------------|
B|----------------------------------------------|
G|----------------------------------------------|
D|2p0---------2---------------------------------|
A|---2p0------2---------------------------------|
E|------3p0-0-0---------------------------------|
Related for Prison Grove tab