Song name
# A B C D E F G H I J K L M N O P Q R S T U V W X Y Z

Warrior Soul - The Golden Shore tab

From: pcxarw@unicorn.nott.ac.uk (A. Walton)
Subject: TAB:The Golden Shore - Warrior Soul

Taken from the album Salutations From the Ghetto Nation

Tabbed by Andy Walton
Any comments or corrections, mail me at pcxarw@chemistry.nottingham.ac.uk

I noticed that someone had requested this song so he's my attempt. It's not
complete so if anyone knows the solo...

I'll try and send Love Destruction and Dimension soon too.


Legend:

b bend note to new note given in ()
|--------|
|    //  |
| 2 // 3 |  Repeat previous 2 measures 3 times
|  //    |
| //     |
|--------|

As always listen to the record for the rhythm.

Intro:
E|----------------------|-------------------------|
B|----------------------|-------------------------|
G|-5--5--4--5--4--2-----|-12---12-11-12-11--------|
D|----------------------|-------------------7-----|
A|----------------------|-------------------------|
E|----------------------|-------------------------|

Riff A:
(let open D string ring )
E|---------------------------------------|--------|
B|---------------------------------------|    //  |
G|-5/7-7---7/9-9---9/11-11---12---11-9\7-| 1 // 3 |
D|-------0-------0---------0----0--------|  //    |
A|---------------------------------------| //     |
E|---------------------------------------|--------|

Riff B:                              Riff C:
E|-----------------0-------|--------|---------2-0-----|--------|
B|---------------0-----0---|    //  |-------0-----0---|    //  |
G|-5--5-4-5-4-2----------2-| 1 // 3 |-7---2---------2-| 1 // 3 |
D|-------------------------|  //    |-7---------------|  //    |
A|-------------------------| //     |-5---------------| //     |
E|-------------------------|--------|-----------------|--------|
                                     There's more going on here
                                     but it's difficult to figure out

Riff D:
E|-------------------|--------|-------------------|
B|-------------------|    //  |-------------------|
G|-5--7--10--7--7--7-| 1 // 2 |--5--5--5--4--4--4-|
D|-0--0---0--0--0--0-|  //    |--0--0--0--0--0--0-|
A|-------------------| //     |-------------------|
E|-------------------|--------|-------------------|


E|-------------------|--------|-------------------|
B|-------------------|    //  |-------------------|
G|-5--7--10--7--7--7-| 1 // 2 |--5--5--5--4--4--4-|
D|-0--0---0--0--0--0-|  //    |--0--0--0--0--0--0-|
A|-------------------| //     |-------------------|
E|-------------------|--------|-------------------|


E|-------------------|--------|-------------------|
B|-------------------|    //  |-------------------|
G|-5--7--10--7--7--7-| 1 // 2 |--5--5--5--4--4--4-|
D|-0--0---0--0--0--0-|  //    |--0--0--0--0--0--0-|
A|-------------------| //     |-------------------|
E|-------------------|--------|-------------------|


E|--------------------------------------------------------------|
B|--------------------------------------------------------------|
G|--7--5/10--5--7--7--7/10--5--7--7--7/10--5--7--7--7/10--5--7--|
D|--7--7/10--5--7--7--7/10--5--7--7--7/10--5--7--7--7/10--5--7--|
A|--5--5/-8--3--5--5--5/-8--3--5--5--5/-8--3--5--5--5/-8--3--5--|
E|--------------------------------------------------------------|


Second time around go back to Riff A and substitute this for Riff C
E|-----------------------------------------------------------|
B|-----------------------------------------------------------|
G|-7t(7)-----------------------------------------------------|
D|-7t(7)-----------------------------------------------------|
A|-5t(5)---5~~--5~~--5~~--5~~--------------------------------|
E|-----------------------------------------------------------|

Then play the solo and go into Riff D and carry on from there

Solo - just the first handful of notes I'm afraid
E|---------------------------|
B|---------------------------|
G|--17b(19)-17-14-17b(19)----|
D|---------------------------|
A|---------------------------|
E|---------------------------|

Keywords:
Tap to rate this tab
# A B C D E F G H I J K L M N O P Q R S T U V W X Y Z