Song name
# A B C D E F G H I J K L M N O P Q R S T U V W X Y Z

Warrior - Fighting For The Earth tab

Help us improve GuitareTab! Take a short survey!
Song: Fighting for the Earth
Artist: Warrior
Album: Fighting for the Earth (1985)

/= Slide
x= mute
pm..= Palm Muted
h= hammer on
p= pull off


Intro
|---------------------------------------|
|---------------------------------------|
|--------9--------7--------9--------7---|
|--------9--------7--------9--------7---|
|--------7--------5--------7--------5---|
|---0-0------0-0------0-0------0-0------|

Main Riff/Verse   
Guitar 1 - (The chords are not palm muted)
|---------------------------------------------------|
|---------------------------------------------------|
|--------9-------7-------9-------7-------12-12/11---|
|--------9-------7-------9-------7-------12-12/11---|
|--------7-------5-------7-------5-------10-10/9----|
|---0-0-----0-0-----0-0-----0-0-----0-0-------------|
   Pm..     Pm..    Pm..    Pm..    Pm..


|-------------------------------------------------|
|-------------------------------------------------|
|--------9-------7-------9-------7-------5-5/7----|
|--------9-------7-------9-------7-------5-5/7----|
|--------7-------5-------7-------5-------3-3/5----|
|---0-0-----0-0-----0-0-----0-0-----0-0-----------|
   Pm..     Pm..    Pm..    Pm..    Pm..

Guitar 2
Half way through verse 1, Guitar 2 comes in and plays
|-------------|
|-------------|
|---5-5-7-----|
|---5-5-7-2---|
|---3-3-5-2---|
|---------0---|

Then guitar 2 plays an E-chord each time the main riff is played




At the end of verse 1
|---------------------------------------------------|
|---------------------------------------------------|
|--------9-------7-------9-------7-------12-12/11---|
|--------9-------7-------9-------7-------12-12/11---|
|--------7-------5-------7-------5-------10-10/9----|
|---0-0-----0-0-----0-0-----0-0-----0-0-------------|

|-----------------------------------------|
|-----------------------------------------|
|--------9-------7-------9---9-7-5/7------|
|--------9-------7-------9---9-7-5/7------|
|--------7-------5-------7---7-5-3/5------|
|---0-0-----0-0-----0-0-------------------|


Pre-Chorus

|----------------------------------------------|
|----------------------------------------------|
|-----9-7-5-4---5-555555-5---5-7-5-4-4444444---|
|-----9-7-5-4---5-555555-5---5-7-5-4-4444444---|
|-----7-5-3-2-0-3-333333-3-0-3-5-3-2-2222222---|
|---0------------------------------------------|
                  Pm....             Pm....

Fill in
|--------------------|
|--------------------|
|--------------------|
|--------------------|
|---2h3p0------3/5---|
|---------3v-0-------|


Chorus 
|---------------------------------|
|---------------------------------|
|--------9----7----9---12-12/11---|
|--------9----7----9---12-12/11---|
|--------7----5----7---10-10/9----|
|-----0---------------------------|

Break-down - Clean (Chords aren't palm muted)
|-----------------------------|
|------------------------8-8--|
|------------------------7-7--|
|------------------------9-9--|
|------------------------7-7--|
|---0-0-0-0-0-0-0-0-0-0-------|   x4
  Pm...................   

Distortion
|------------------------------|
|------------------------------|
|------------------------------|
|------------------------2-2---|
|------------------------2-2---|
|---0-0-0-0-0-0-0-0-0-0--0-0---|  X4
  Pm...................


Solo
Part 1
|-----------------------------------------|
|-----------------------------------------|
|-----------------------------------------|
|-----------------------------------------|
|---/7--------------/9-10--9-7--9/12--9---|
|---------3/5-3-0-------------------------|

Part2
|-----------------------7-10-7-----------|
|-------------------7-8--------8-7-------|
|---------------4-7----------------7-4---|
|-----------4-5--------------------------|
|-------2-5------------------------------|
|---2-3----------------------------------|

Part 3
Don't know the next part but it uses the E-major scale

Part 4 - Sweep the first 3 notes
|-----7-8-10-8--7h8p7----8-7-5-7-8-7-5-7-8-7-5--------|
|----8-----------------------------------------8-7----|
|---7-------------------------------------------------|
|-----------------------------------------------------|
|-----------------------------------------------------|
|-----------------------------------------------------|

Part 5 
Don't know the next part but it uses the E-major scale, so just shred here

The solo ends like
|--------5-----|
|---5b---------|
|--------------|
|--------------|
|--------------|
|--------------|




Structure
Intro
Verse 1-Main riff (Guitar 2 comes in playing E-chords)
Chorus riff - no singing
Fill in
Verse 2-Main riff (Guitar 2 comes in playing E-chords)
Pre chorus
Fill-in
Chorus - With singing
Break down - (Clean, then distortion)
Chorus
Solo - (E-major scale)
Verse 3- (guitar starts playing half way through, slides when it comes in)
Pre-chorus
Fill-in
Chorus - (Guitar 1 or 2 plays the riff whilst the other improvises) 


I apologize if i have made any mistakes, If you have any complaints
about this tab please contact me at spoonman_lives@hotmail.com.
Also if you have any more of their songs off this album feel free to send them to me at the same address.










Related for Fighting For The Earth tab