Song name
# A B C D E F G H I J K L M N O P Q R S T U V W X Y Z

Warship - Wounded Paw tab

e-------------------------------|    e---------------------------------|
b-------------------------------|    b---------------------------------|
g---------------------------777-| x8 g-5-5-5-5-5-5-5-5-5-5-5-7-7-7-(7)-| x2
d-------9p7-----------------444-|    d-2-2-2-2-2-2-2-2-2-2-2-4-4-4-(4)-|
a--9h10-----9p7-9-10p9p7-9--555-|    a-3-3-3-3-3-3-3-3-3-3-3-5-5-5-(5)-|
e-0-----------------------------|    e---------------------------------|


e---------------------------------------------------|
b---------------------------------------------------|
g-13-13-13-1111111111-11-9-9-9-9-9---9--------------|  x3
d--x--x--x-x-x-x-x-x---x-x-x-x-x-x---x-2-2-2-2------|
a-11-11-11-9-9-9-9-9---9-7-7-7-7-7---7-3-3-3-3-2----|
e----------------------------------------------0----|



e----------------------------|
b----------------------------| THE TUNING IS C# STANDARD!!!!!
g----------------------------|
d----------------------------|
a----------------10----------|
e-7/9-9-9-12-9-9----9-10-9-7-|

e--------------------------|
b--------------------------|
g-----------------------11-|  people for this part i dont feel like counting
d-----------------------10-| all of the opens so listen for it, I can tell 
a-----------------------9--| you that it is a gallop. Listen for the exact 
e-0-0-0-0-0-0-0-0-0-0-0-8--| number of strums for the chord. hint :(give the chord 
a slight bend to give it the correct pitch) 



Everything from this point is the same riffs repeated :) enjoy and rate :)
Tap to rate this tab
 
# A B C D E F G H I J K L M N O P Q R S T U V W X Y Z