Song name
# A B C D E F G H I J K L M N O P Q R S T U V W X Y Z

Warship - Indoors tab

Artist: Warship
Title: Indoors
Tuning: DADGBE (Standard; low E dropped to D)

INTRO/RIFF

lead guitar
e|-----------------------------------------------------------------|
B|-----2---------2-------2-5-5/3-2-2-2---0-------0-----0-----------|
G|-----------------2-------------------------------1-----------2-1-| x4
D|---4---4-4/6-7-------4-------------------2/4-6---------2/4-6-----|  
A|-----------------------------------------------------------------|
D|-4-----------------4-----------------2-------------2-------------|

rhythm guitar
e|-x-----------------x-----------------x-------------x-------------|
B|-x-----------------x-----------------x-------------x-------------|
G|-x-----------------x-----------------x-------------x-------------| x4
D|-4-----------------4-----------------2-------------2-------------|
A|-4-----------------4-----------------2-------------2-------------|
D|-4-----------------4-----------------2-------------2-------------|



BRIDGE

lead guitar
e|-----------------------------------------------------------------|
B|-----------------------------------------------------------------|
G|-----------------------------------------------------------------| 
D|-------------------------------------7/6-4---------7/6-4---------|
A|-----------------------------------------------------------------|
D|-----------------------------------------------------------------|

e|--------------------------------|
B|--------------------------------|
G|--------------------------------| 
D|-7/6-4-------------7/6-4--------|
A|--------------------------------|
D|--------------------------------|

e|-----------------------------------------------------------------|
B|-----------------------------------------------------------------|
G|-----------------------------------------------------------------| x2
D|---6-7/6-6-7---------6-7/6-6-7---------6-7/6-2-0-----6-7/6-2-0---|
A|-5-----------------5-----------------5-------------5-------------|
D|-----------------------------------------------------------------|

rhythm guitar
e|-x-----------------x-----------------x-------------x-------------|
B|-x-----------------x-----------------x-------------x-------------|
G|-x-----------------x-----------------x-------------x-------------| 
D|-4-----------------4-----------------4-------------4-------------|
A|-4-----------------4-----------------4-------------4-------------|
D|-4-----------------4-----------------4-------------4-------------|

e|-x-----------------x------------|
B|-x-----------------x------------|
G|-x-----------------x------------| 
D|-4-----------------4------------|
A|-4-----------------4------------|
D|-4-----------------4------------|

e|-x-----------------x-----------------x-------------x-------------|
B|-x-----------------x-----------------x-------------x-------------| 
G|-x-----------------x-----------------x-------------x-------------| x2
D|-4-----------------4-----------------4-------------4-------------|
A|-4-----------------4-----------------4-------------4-------------|
D|-4-----------------4-----------------4-------------4-------------|



OUTRO
e|-x-x-x---x---------------------------x-------------x-------------|
B|-x-x-x---x---------------------------x-------------x-------------| x4
G|-x-x-x---x---------------------------x-------------x-------------|
D|-2-2-2---0---------------------------4-------------4-------------|
A|-2-2-2---0---------------------------4-------------4-------------|
D|-2-2-2---0---------------------------4-------------4-------------|

e|-x-x-x-|
B|-x-x-x-|
G|-x-x-x-|
D|-2-2-2-|
A|-2-2-2-|
D|-2-2-2-|

Tap to rate this tab
# A B C D E F G H I J K L M N O P Q R S T U V W X Y Z