Guitaretab - guitar tabs
Song name
# A B C D E F G H I J K L M N O P Q R S T U V W X Y Z

Wash - Drug 05 Mix tab

Artist: WASH
Song: Drug (05 mix)
Album: ninefivezerofive


Standard tuning


Verse (Guitar 2)
E|---------------|
B|---------------|
G|----4-3-3-3----|
D|---------------|
A|---------------|
E|---------------|
  1 & 2 & 3 & 4 & 


Chorus Overlay Riff (Guitar 2)
E|---------------|
B|------4*-------|
G|----4----------|
D|---------------|
A|---------------|
E|---------------|
  1 & 2 & 3 & 4 & 


Chorus
E|---------------|
B|---------------|
G|----------3-3-3|
D|2-2---5---3-3-3|
A|2-2---5---1-1-1|
E|0-0---3--------|
  1 & 2 & 3 & 4 & 
 
[ Tab from: http://www.guitaretab.com/w/wash/69223.html ]
Instrumental Bridge (Guitar 2)
E|------------------------------|
B|----5-5-5-5-----5-5-5-5-----5^|
G|------------------------------|
D|------------------------------|
A|------------------------------|
E|------------------------------| (bend is to the pitch of sixth fret note)
  1   &   2   &   3   &   4   &  



SONG STRUCTURE
(DRUMS ONLY for first 8 bars)
(BASS ONLY Intro)
Verse 12x
(BASS ONLY Post-Verse)
Chorus 8x + Chorus Overlay Riff
Verse 12x
(BASS ONLY Post-Verse)
Chorus 8x + Chorus Overlay Riff
Chorus 8x + Chorus Overlay Riff + Instrumental Bridge
Instrumental Bridge
Chorus 8x + Chorus Overlay Riff
Chorus 8x + Chorus Overlay Riff + Instrumental Bridge
(BASS ONLY Outro x10)
(BASS ONLY Post-Outro)

Related for Drug 05 Mix tab