Song name
# A B C D E F G H I J K L M N O P Q R S T U V W X Y Z

Wash - Like It Is Flow tab

-----------------------------------------------------------------------------
                            WASH - Like It Is (Flow)
-----------------------------------------------------------------------------

Album: ninefivezerofive


Tuning: Drop D (DADGBE)


Intro/Verse riff
E|---------------------------------------|
B|---------------------------------------|
G|---------------------------------------|
D|-0-0-19-0-0-18-0-0-20-0-0-16-0-0-16h17-|
A|---------------------------------------|
D|---------------------------------------|


Chorus riff 1
E|-----------------------------------|
B|-----------------------------------|
G|-----------------------------------|
D|-----------------------------------|
A|-----------------------------------|
D|-10---0-10-0---10---0---0-10-11-12-|


Chorus riff 2
E|-----------------------|
B|-----------------------|
G|-----------------------|
D|-8-8--x-7-x-5-5--x-7-x-|
A|-8-8--x-7-x-5-5--x-7-x-|
D|-8-8--x-7-x-5-5--x-7-x-|


Those are the main riffs used, there is a little fill used somewhere through the song:
E|-----------|
B|-----------|
G|-----------|
D|-2--2------|
A|-2--2------|
D|-2--2------| and into ‘Chorus riff 2’...


There is a variation of ‘Chorus riff 2’ you can hear played somewhere near the end that 
like this:
E|------------------------|
B|------------------------|
G|------------------------|
D|-8-8-x-7-xx-5-5--x-7-xx-|
A|-8-8-x-7-xx-5-5--x-7-xx-|
D|-8-8-x-7-xx-5-5--x-7-xx-|


And after the last chorus the song, it finishes with:
--------------------|-------------||
--------------------|-------------||
--Last time---------|-------------||
--through-----------|-5-5-5-5-7-7-||
--‘Chorus riff 2’..-|-5-5-5-5-7-7-||
--------------------|-5-5-5-5-7-7-||


-----------------------------------------------------------------------------
Tap to rate this tab
# A B C D E F G H I J K L M N O P Q R S T U V W X Y Z