Song name
# A B C D E F G H I J K L M N O P Q R S T U V W X Y Z

Washed Out - Feel It All Around chords

Highlighted       Show chord diagrams
If you're playing it in the guitar, Capo 1st fret: C - D but if not:

Intro (and whole song): C# - D#

---------------------------------|
----------------------------4----|
--5----3----5----6--3---------1--|
---------------------------------|
---------------------------------|
---------------------------------|

C#           D#              C#      D#
You feel it all around yourself

C#              D#              C#    D#
You know it's yours and no one else

C#            D#                   C#      D#
You feel the thought of learning again

C#           D#              C#      D#
It's all around

C#               D#               C#      D#
You're tired of all the things you did

C#           D#              C#      D#
You'll work it out

bass:

---------------------------|
---------------------------|
--4-4--4-4-------6-6----6--|
------------4-6-------6----|

http://www.myspace.com/thebabeinthewoods (ultimate-guitar wouldn't let me put it up 
without the link)
Tap to rate this tab
# A B C D E F G H I J K L M N O P Q R S T U V W X Y Z