Song name
# A B C D E F G H I J K L M N O P Q R S T U V W X Y Z

Washington - Aftermath tab

Alright people I'm alittle lazy so I tabbed this out well most of it!
I havent done all of it but the other tab has the parts I didn't do and I made some 
to his.

Important- The chorus is the same as Ten Ton Brick!!! That is something that was wrong
the other guy's tab.
So the rest you can look up on his cause I'm being lazy!!! HURT RULES!!!!!!!!!!!!!!!!

Tuning- Drop C#

Verse type
|---------------------------------------------|
|---------------------------------------------|
|---------------------------------------------|
|-------0-3---2--3-----2----0-----------------|
|----0------0-------0-----0-------------------|
|-0-------------------------------------------|


Chorus
|---------------------------------------------------|
|-11--11--6----6--8---8--3----3---------------------|
|-10--10--5----5--7---7--2----2---------------------|
|-8---8---3----3--5---5--0----0---------------------|
|-8---8---3----3--5---5--0----0---------------------|
|-8---8---3----3--5---5--0----0---------------------|


|----------------------------------------------------|
|-11--11--6----6--8---8--8--8~-----------------------|
|-10--10--5----5--7---7--7--5~-----------------------|
|-8---8---3----3--5---5--5--5~-----------------------|
|-8---8---3----3--5---5--5--5~-----------------------|
|-8---8---3----3--5---5--5--5~-----------------------|
Tap to rate this tab
# A B C D E F G H I J K L M N O P Q R S T U V W X Y Z