Washington - Welcome Stranger tab

-------------------------------------------------------------------------------
			     WELCOME STRANGER - Washington
-------------------------------------------------------------------------------
Tabbed by: dinershortjohn
Email: dinershortjohn@gmail.com

Tuning: EADGBe

INTRO/VERSE/OUTRO
e|--------2-------2-------2-------0-------0-------0-------0------------------|
B|----3-------3-------3-------3-------3-------3-------3-------3--------------|
G|------2-------2-------2-------2-------2-------2-------2-------2------------|
D|--0-------0-------0-------0-------0-------0-------0-------0----------------|
A|---------------------------------------------------------------------------|
E|---------------------------------------------------------------------------|

e|--3-------3-------3-------3-------2-------2-------2-------2----------------|
B|------3-------3-------3-------3-------3-------3-------3-------3------------|
G|--------2-------2-------2-------2-------2-------2-------2-------0h2--------|
D|----0-------0-------0-------0-------0-------0-------0-------0--------------|
A|---------------------------------------------------------------------------|
E|---------------------------------------------------------------------------|

CHORUS
("You are still pretending. . .")
e|----------------------------------------2-------2-------2-------2----------|
B|--------2-------2-------2-------2---3-------3-------3-------3--------------|
G|----2-------2-------2-------2---------2-------2-------2-------2------------|
D|------2-------2-------2-------2---0-------0-------0-------0----------------|
A|--0-------0-------0-------0------------------------------------------------|
E|---------------------------------------------------------------------------|

("But this is just a business. . .")
e|--------0---------------0---------------2-------2--------------------------|
B|----------------0---------------0---3-------3------------------------------|
G|--------------------------------------2-------2---------1------------------|
D|----0-------0-------0-------0-----0-------0-----------2--------------------|
A|------2-------2-------2-------2---------------------2----------------------|
E|--3-------3-------3-------3-----------------------0-------0----------------|

("Just as long as no one says your name.")
e|----------------0-----------------------2-------2-------2-------0----------|
B|--------0---------------2-------0---3-------3-------3-------3--------------|
G|--------------------2-------2---------2-------2-------2-------2------------|
D|----0-------0---------2-------2---0-------0-------0-------0----------------|
A|------2-------2---0-------0------------------------------------------------|
E|--3-------3----------------------------------------------------------------|

END WITH
e|--2------------------------------------------------------------------------|
B|--3------------------------------------------------------------------------|
G|--2------------------------------------------------------------------------|
D|--0------------------------------------------------------------------------|
A|---------------------------------------------------------------------------|
E|---------------------------------------------------------------------------|


INTRO

VERSE
So, the way that these things go often finds me singing in my pillow
And the way that these things are often finds me crying in the car

And, my love it is as wide as my jealousy is bitter and cruel
But it feels like someone died

CHORUS
You are still pretending you're not telling any lies
I am still pretending I believe you

But this is just a business, and I don't feel any pain
Just as long as no one says your name

VERSE
All the years, of being broke
All the spit, and all the smoke,
And all the fucking, all the drugs
All the love was not enough
You take my guts, I'll take the car
Welcome, stranger - here you are
Never seen your face before
Now welcome, stranger, nice to meet you

CHORUS
You are still pretending you're not telling any lies
I am still pretending I believe you

But this is just a business, and I don't feel any pain
Just as long as no one says your name
Just as long as no one

OUTRO



************************************

| /   slide up
| \   slide down
| h   hammer-on
| p   pull-off
| ~   vibrato
| +   harmonic
| x   Mute note
| b   Bend
| pb  Pre-bend
| br  Bend release
| pbr Pre-bend release
| brb Bend release bend

************************************
Tap to rate this tab
 
# A B C D E F G H I J K L M N O P Q R S T U V W X Y Z