Song name
# A B C D E F G H I J K L M N O P Q R S T U V W X Y Z

Washya - System Error tab

-----------------------------------------------------------------------------
			    System Error - Washya
-----------------------------------------------------------------------------
Tabbed by: Josh
Email:

Tuning: Drop C (CGCfad) 
Intro
D|---------------------------------------------------------------------|
A|---------------------------------------------------------------------|
F|---------------------------------------------------------------------|
C|-------------------------<7>---------------------------------------3-|
G|---------------------0-0-------------------------7-5---5-----------3-|
C|-0-0-0-0-0-0-0-0-0-0---------0-0-0-0-0-0-0-0-0-0-----8---8-7-5-7-5-3-|
pm . . . . . . . . . .         . . . . . . . . . .         . . . . .    


Verses
D|----------------------------------------------------------------------|
A|----------------------------------------------------------------------|
F|----------------------<7>---------------------------------------------|
C|------------------<7>-----<7>-----------------------7-----------------|
G|--------------<7>-------------<7>-7-5---5-7-5-5h6p5---5-3-2-1-0-0-0-0-|
C|-0-0-0--0-0-0-------------------------8-------------------------------|
pm . . .  . . .                                                 . . . . 

Interlude
D|----17-17--------------19-19--------------21-21----------------------22-22|
A|-15----------17-17--17----------19-19--19----------21-21----------20------|
F|----------15-----------------17-----------------19----------22-22---------|
C|---------------------------------------------------------19---------------|
G|--------------------------------------------------------------------------|
C|--------------------------------------------------------------------------|

Guitar Solo 1
D|------------------------------------------------------------------------|
A|------------------------------------------------------------------------|
F|---------------------------------------6-8-10-6-8-10--------------------|
C|-------------------------6-8-10-6-8-10---------------10p8p7h8h10--------|
G|-------------2-4-6-2-4-6------------------------------------------------|
C|-2-4-6-2-4-6------------------------------------------------------------|


D|-----------------------------------------------------|
A|-10p8p7--12p10p9-10p8p7-12p10p9h10h12p10p9-12~~------|
F|-----------------------------------------------------|
C|-----------------------------------------------------|
G|-----------------------------------------------------|
C|-----------------------------------------------------|


D|----14-15-14-12-14----14-15-14-12-14----14-15-14-12-14-12-----|
A|-12----------------12----------------12-------------------12~-|
F|--------------------------------------------------------------|
C|--------------------------------------------------------------|
G|--------------------------------------------------------------|
C|--------------------------------------------------------------|

Interlude
D|----17-17--------------19-19--------------21-21----------------------22-22|
A|-15----------17-17--17----------19-19--19----------21-21----------20------|
F|----------15-----------------17-----------------19----------22-22---------|
C|---------------------------------------------------------19---------------|
G|--------------------------------------------------------------------------|
C|--------------------------------------------------------------------------|

Verses
D|----------------------------------------------------------------------|
A|----------------------------------------------------------------------|
F|----------------------<7>---------------------------------------------|
C|------------------<7>-----<7>-----------------------7-----------------|
G|--------------<7>-------------<7>-7-5---5-7-5-5h6p5---5-3-2-1-0-0-0-0-|
C|-0-0-0--0-0-0-------------------------8-------------------------------|
pm . . .  . . .                                                 . . . . 


Guitar Solo 2.
D|-12h13h15h17p15p13p12h13h15h17---------------------------------------|
A|-------------------------------12h13h15h17p15p13p12h13h15h17-17b~----|
F|---------------------------------------------------------------------|
C|---------------------------------------------------------------------|
G|---------------------------------------------------------------------|
C|---------------------------------------------------------------------|

D|-12-13-15-13-12h13p12----12----------------------------------------------|
A|----------------------15----15-14-12----12-------------------------------|
F|-------------------------------------14----14----------------------------|
C|----------------------------------------------13-12-10-12h13p12-10-------|
G|-------------------------------------------------------------------9-8-7-|
C|-------------------------------------------------------------------------|

Verses
D|----------------------------------------------------------------------|
A|----------------------------------------------------------------------|
F|----------------------<7>---------------------------------------------|
C|------------------<7>-----<7>-----------------------7-----------------|
G|--------------<7>-------------<7>-7-5---5-7-5-5h6p5---5-3-2-1-0-0-0-0-|
C|-0-0-0--0-0-0-------------------------8-------------------------------|
pm . . .  . . .                                                 . . . . 

Guitar Solo 3. (Final Solo)

D|-12b~-12t13t19p13p12t13t19t13t12t13t20t13t12t13t22t13t12t13t22t13t12t13t22|
A|--------------------------------------------------------------------------|
F|--------------------------------------------------------------------------|
C|--------------------------------------------------------------------------|
G|--------------------------------------------------------------------------|
C|--------------------------------------------------------------------------|

D|---------------------------------------------------------------------|
A|-13t14t22t14t13t14t22t14t13t14t22t14t13t14t22t14t13t14t22-22~~-------|
F|---------------------------------------------------------------------|
C|---------------------------------------------------------------------|
G|---------------------------------------------------------------------|
C|---------------------------------------------------------------------|

D|-21-20-19-17-16-15-17-16-14-13-15-17-13-15-13-12-10-9-8-----------------|
A|--------------------------------------------------------7-5---7---------|
F|------------------------------------------------------------5---7---9---|
C|------------------------------------------------------------------5-----|
G|------------------------------------------------------------------------|
C|------------------------------------------------------------------------|

D|----------------------------------------------------------------------9~--|
A|-------------------------------------------------9------------------7-----|
F|-9---9-9---9-9-7-9-7-7-------7-7-9-9-7-9-7-7-7-9---9-7---7----9-7-9-------|
C|---7-----7-------------7---9---------------------------9----9-------------|
G|-------------------------9------------------------------------------------|
C|--------------------------------------------------------------------------|

D|-9-10t12t17t12t10t17t12t17----------------------------------------|
A|---------------------------12t13t19t13t12t13t19-------------------|
F|------------------------------------------------14t15t20t15t14t15-|
C|------------------------------------------------------------------|
G|------------------------------------------------------------------|
C|------------------------------------------------------------------|

D|------------------------------------------------------------------------|
A|-15t17t20t17t15t17t20t17t15t17t20---------------------------------------|
F|----------------------------------17t20t22t20t17------------------------|
C|-------------------------------------------------22t18t16t18t22---------|
G|----------------------------------------------------------------22------|
C|-------------------------------------------------------------------22~--|

D|--------------------------------------------------------------------------|
A|--------------------------------------------------------------------------|
F|-------------------------------------------------------15-17-19-15-17-19--|
C|-------------------------------------12-15-17-12-15-17--------------------|
G|-------------------12-15-17-12-15-17--------------------------------------|
C|-12-15-17-12-15-17--------------------------------------------------------|

D|-------------------22-22-22~-----------------------------------------|
A|-17-19-21-17-19-21---------------------------------------------------|
F|---------------------------------------------------------------------|
C|---------------------------------------------------------------------|
G|---------------------------------------------------------------------|
C|---------------------------------------------------------------------|

Interlude
D|----17-17--------------19-19--------------21-21----------------------22-22|
A|-15----------17-17--17----------19-19--19----------21-21----------20------|
F|----------15-----------------17-----------------19----------22-22---------|
C|---------------------------------------------------------19---------------|
G|--------------------------------------------------------------------------|
C|--------------------------------------------------------------------------|


Verses
D|----------------------------------------------------------------------|
A|----------------------------------------------------------------------|
F|----------------------<7>---------------------------------------------|
C|------------------<7>-----<7>-----------------------7-----------------|
G|--------------<7>-------------<7>-7-5---5-7-5-5h6p5---5-3-2-1-0-0-0-0-|
C|-0-0-0--0-0-0-------------------------8-------------------------------|
pm . . .  . . .                                                 . . . . 




That's it
Tap to rate this tab
 
# A B C D E F G H I J K L M N O P Q R S T U V W X Y Z