Song name
# A B C D E F G H I J K L M N O P Q R S T U V W X Y Z

Washya - Diminished tab

-----------------------------------------------------------------------------
			     Diminished - Washya
-----------------------------------------------------------------------------
Tabbed by: Josh
Email:

Tuning: Standard (EADgbe) 
Intro/Verses
e|-------------------------------------------------2-2---|
B|---------2-----2-------3-------3---------2-----2-2-3---|
G|-------3-----3-------4---4---4---------3-----3---3-4---|
D|-----4-----4-------4-------4---------4-----4-----4-4---|
A|---4-------------2-----------------4-------------4-2---|
E|-2-------------------------------2---------------2-----| 


Chorus
e|---------------------------------------------------------|
B|---------------------------------------------------------|
G|---------4-4-4-4-7-7-7-7-----------------3-3-3-3---------|
D|-4-4-4-4-4-4-4-4-7-7-7-7-7-7-7-7-5-5-5-5-3-3-3-3-3-3-3-3-|
A|-4-4-4-4-2-2-2-2-5-5-5-5-7-7-7-7-5-5-5-5-1-1-1-1-3-3-3-3-|
E|-2-2-2-2-----------------5-5-5-5-3-3-3-3---------1-1-1-1-|


Guitar Solo
e|----------------------------------------------12b-13b-15b-17~---|
B|-9-9~-9-7-----9-7-9-7-9~--10b10h12p10h10p12-13~-----------------|
G|------------7---------------------------------------------------|
D|----------9-----------------------------------------------------|
A|----------------------------------------------------------------|
E|----------------------------------------------------------------|
Tap to rate this tab
 
# A B C D E F G H I J K L M N O P Q R S T U V W X Y Z