Washya - Shaken tab

-------------------------------------------------------------------------------
			     Shaken - Washya
-------------------------------------------------------------------------------
Tabbed by: josh
Email:

Tuning: Standard (EADgbe)

Intro/Main Riff/Chorus
e|------------------------------------------|
B|------------------------------------------|
G|-3-3-3---------------3-3-3----------------|
D|-3-3-3-5-5-5---------3-3-3-5-5-5----------|
A|-1-1-1-5-5-5---------1-1-1-5-5-5-------1--|
E|-------3-3-3-1-3-1-3-------3-3-3-1-3-1----|
pm             . . . .             . . . 

Verses
e|-----------------------------------------------|
B|-----------------------------------------------|
G|-----------------------------------------------|
D|-----------------------------------------------|
A|------------------------------------------3~---|
E|-5-5-5-3-3-3--3-5-3-5--5-5-5-3-3-3--3-5-3------|
pm . . . . . .  . . . .  . . . . . .  . . .  


Guitar Solo
e|---------------------------------------------------------------|
B|-----------------------------------------------12----12-15~----|
G|----------------------------7---7-9b-9-9-11-11----11-----------|
D|-----------3---3-5b-7-7-5-5---5--------------------------------|
A|-5-5-5-3-3---5-------------------------------------------------|
E|---------------------------------------------------------------|
Tap to rate this tab
 
# A B C D E F G H I J K L M N O P Q R S T U V W X Y Z