Washya - The Devils Dance tab

-------------------------------------------------------------------------------
			     The Devil's Dance - Band Name
-------------------------------------------------------------------------------
Tabbed by: josh
Email:

Tuning: Drop C
Very Heavy Intro (play fast)
D|----------------------------------------------------------|
A|----------------------------------------------------------|
F|----------------------------------------------------5-5-5-|
C|-0-3-5-6-5-3-0-3-5-6-5-3-0-3-5-6-5-3-5~-0-3-5-6-5-3-5-5-5-|
G|-0-3-5-6-5-3-0-3-5-6-5-3-0-3-5-6-5-3----0-3-5-6-5-3-3-3-3-|
C|-0-3-5-6-5-3-0-3-5-6-5-3-0-3-5-6-5-3----0-3-5-6-5-3-------|

Verses (same as intro but this time palm muted)
D|------------------------------------------------------------|
A|------------------------------------------------------------|
F|----------------------------------------------------5-5-5---|
C|-0-3-5-6-5-3-0-3-5-6-5-3-0-3-5-6-5-3-5~-0-3-5-6-5-3-5-5-5---|
G|-0-3-5-6-5-3-0-3-5-6-5-3-0-3-5-6-5-3----0-3-5-6-5-3-3-3-3---|
C|-0-3-5-6-5-3-0-3-5-6-5-3-0-3-5-6-5-3----0-3-5-6-5-3---------|
pm . . . . . . . . . . . . . . . . . .    . . . . . .   

Guitar Solo (played Slow)
D|----------------------------------------------------------------------|
A|---------------------------------9-11b-9-----------------------12-15~-|
F|--------------9-9b-7----7---9-11---------11------------7-9b-11--------|
C|-7~-----9-7-7--------9b---7-----------------9-11-9---9----------------|
G|----9-7--------------------------------------------7------------------|
C|----------------------------------------------------------------------|
Tap to rate this tab
 
# A B C D E F G H I J K L M N O P Q R S T U V W X Y Z