Song name
# A B C D E F G H I J K L M N O P Q R S T U V W X Y Z

Washya - Strangle The Goat tab

----------------------------------------------------------------------------
			    Strangle The Goat - Washya
----------------------------------------------------------------------------
Tabbed by: Josh
Email:

Tuning: Drop C
Intro
D|---------------3-----------------3----3-----------------5~-|
A|-------------3---3-------------3---3----------------3-5----|
F|-------0---0-------------0---0----------------0---0--------|
C|-----4---4-------------4---4----------------4---4----------|
G|---2-----------------2--------------------2----------------|
C|-0-----------------0--------------------0------------------|

Intro 2.
D|-------------------------------------------------------------------|
A|-------------------------------------------------------------------|
F|------------------------------------------------------5-3-2--------|
C|--------------------------1---------------1-------2-3-------5------|
G|--------------------------1---------------1-2-3-5-------------3-2--|
C|-0-0-0---0-0-0-0-0-0-0-0--1-0--0-0-0-0-0--1------------------------|
pm . . .   . . . . . . . .    .  . . . . .    . . . . . . . . . . .  

Verses
D|--------------------2-------------------------------------------------|
A|--------------------2--------------------------------------------8b~--|
F|--------------4-4-4-2---2-0---2-4----------6-4-----------------6------|
C|--------------4-4-4---4-----4-----4-4-4-4------6-4-----2-2-2-4--------|
G|--------------2-2-2---------------4-4-4-4----------6---2-2-2----------|
C|-pickslide-//---------------------4-4-4-4------------4-2-2-2----------|


D|----------------------------------------------------------------------|
A|----------------------------------------------------------------------|
F|----------------9-6------------8-8-8------12-12----13~-12---------2-0-|
C|-9-9-9-7-7-7-7------9-6-----8~-8-8-8-8-10-------10-----12-----5-3-----|
G|-9-9-9-7-7-7-7----------9-6----6-6-6-------------------10-8-7---------|
C|-9-9-9-7-7-7-7--------------------------------------------------------|

D|-----------------------7~-9----------------------------------------|
A|-----------------4-6-4----9-----------------------3-------------2~-|
F|-2-2-2-----2-4-6----------9---------------------3---1-------3-1----|
C|-2-2-2---2------------------7-5-3-3-3-3-1-1-1-1-------3---1--------|
G|-0-0-0-0--------------------------3-3-3-1-1-1-----------3----------|
C|----------------------------------3-3-3-1-1-1----------------------|

Guitar Solo
D|-----------------4-6-7-4-6-7-4-6-7-6-4-6-7-------------------10-|
A|-------------4-6---------------------------6-4-------8-10-12----|
F|---------4-6-----------------------------------6-4-7------------|
C|-----4-6--------------------------------------------------------|
G|-4-6------------------------------------------------------------|
C|----------------------------------------------------------------|

D|-8-7-8-10-8-7-8-10---------------13-15-16-15-13-15-16-------------14b-|
A|-------------------12-10-8-10-12----------------------14-12----12-----|
F|------------------------------------------------------------14--------|
C|----------------------------------------------------------------------|
G|----------------------------------------------------------------------|
C|----------------------------------------------------------------------|

D|-14b-14-16-17-16-14-16-------18-20-21b-21b-22-22-22b~--------------------|
A|-----------------------14-16-----------------------------------16----20~-|
F|---------------------------------------------------------15-18----18-----|
C|------------------------------------------------------17-----------------|
G|-------------------------------------------------------------------------|
C|-------------------------------------------------------------------------|
Tap to rate this tab
 
# A B C D E F G H I J K L M N O P Q R S T U V W X Y Z