Song name
# A B C D E F G H I J K L M N O P Q R S T U V W X Y Z

Washya - Slashed tab

-----------------------------------------------------------------------------
                     Slashed - Washya
-----------------------------------------------------------------------------
Tabbed By: Josh
Tuning: Drop D

Intro
e|--------------------------------------------------------------|
B|--------------------------------------------------------------|
G|--------------------------------------------------------------|
D|-5/9-9-9-10p9-5/9-5/9--5/9-9-9-10h12~-10----------------5/9~--|
A|-3/7-7-7------3/7-3/7--3/7-7-7-----------12-10-12-10-12-3-----|
D|-----------------------------------------------12-10-12-------|

Verses
e|--------------------------------------------------------------|
B|--------------------------------------------------------------|
G|--------------------------------------------------------10----|
D|----------------7-7-7\5-5---------5/8-8\7-7-7-7-7-------10----|
A|----------------5-5-5\3-3-5-5-3-3-3/6-6\5-5-5-5---9-9-9-8-----|
D|-xxx//pickslide-----------5-5-3-3-----------------9-9-9-------|


Guitar Solo
e|------------------------------------------------------12-11-12-13-15~----|
B|-----------------------------------------------7-8-10--------------------|
G|---------------------------7-8-10-8-7--------8---------------------------|
D|-----7---7---7-9-------7-9------------9---9b-----------------------------|
A|-7-9---9---9-----9-7-9------------------7--------------------------------|
D|-------------------------------------------------------------------------|
Tap to rate this tab
 
# A B C D E F G H I J K L M N O P Q R S T U V W X Y Z