Song name
# A B C D E F G H I J K L M N O P Q R S T U V W X Y Z

Washya - Zombie Thriller tab

-----------------------------------------------------------------------------
			     Zombie Thriller - Washya
-----------------------------------------------------------------------------
Tabbed by: Josh
Email: 

Tuning: Drop D
Intro
e|-----------------------------------------------------------|
B|-----------------------------------------------------------|
G|-----------------------------------------------------------|
D|-5vp4\-0--0-0-0-0-0-0-3v-0--0-0-0-0-0-0-0-2-2-2-2-4-4-4-5--|
A|-------0--0-0-0-0-0-0----0--0-0-0-0-0-0-0-2-2-2-2-4-4-4-5--|
D|-------0--0-0-0-0-0-0----0--0-0-0-0-0-0-0-2-2-2-2-4-4-4-5--|
pm       .  . . . . . .    .  . . . . . . .   

Verses
e|--------------------------------------------------------------------------|
B|--------------------------------------------------------------------------|
G|--------------------------------------------------------------4-4-4-------|
D|--------------------------------------------------------------4-4-4-3-3-2-|
A|-0-0--0-0-0--0-0--0-0-0--0-0--0-0-0-1-1-1-2-2-2-2--0-0--0-0-0-2-2-2-3-3-2-|
D|-0-0--0-0-0--0-0--0-0-0--0-0--0-0-0-1-1-1-2-2-2-2--0-0--0-0-0-------3-3-2-|
pm . .  . . .  . .  . . .  . .  . . .                . .  . . .  

Verses
e|-------------------------------------------------------------------------|
B|-------------------------------------------------------------------------|
G|-------------------------------------------------------------------4-4-4-|
D|-1-1-1-------------------3-3-3-2-2-1-1-------3-3-2-2-1-------------4-4-4-|
A|-1-1-1-1-1-1-3-3-3-5-5-5-3-3-3-2-2-1-1-------3-3-2-2-1-1-1-1-2-2-2-2-2-2-|
D|-1-1-1-------------------3-3-3-2-2-1-1-0-0-0-3-3-2-2-1-------------------|
pm       . . . . . . . . .               . . .           . . . . . .  

e|-------------------------------------|
B|-------------------------------------|
G|-------------------------------------|
D|-3-3-2-1-1-1-------------------5-5-5-|
A|-3-3-2-1-1-1-1-1-1-3-3-3-------3-3-3-|
D|-3-3-2-1-1-1-------------3-3-3-------|
pm             . . . . . . . . .  

Outro
e|-----------------------------------------------------|
B|-----------------------------------------------------|
G|-----------------------------------------------------|
D|-3-3-2-2-1-----------3-3-2-2-1-----------0-5~-0-2\---|
A|-3-3-2-2-1-----------3-3-2-2-1-----------0-5~-0-2\---|
D|-3-3-2-2-1-0-0-0-0-0-3-3-2-2-1-0-0-0-0-0-0-5~-0-2\---|
pm           . . . . .           . . . . . 
Tap to rate this tab
 
# A B C D E F G H I J K L M N O P Q R S T U V W X Y Z