Washya - The Slaughter tab

-----------------------------------------------------------------------------
			     The Slaughter - Washya
-----------------------------------------------------------------------------
Tabbed by: Josh
Email:

Tuning: Drop D
Intro (Heavy Distortion)
e|-------------------------------------|
B|-------------------------------------|
G|-------------------------------------|
D|-0-0-3-2-1-6-5-0-2-3-2-0-0-6/5-0-2-1-|
A|-0-0-3-2-1-6-5-0-2-3-2-0-0-6/5-0-2-1-|
D|-0-0-3-2-1-6-5-0-2-3-2-0-0-6/5-0-2-1-|

Verses
e|--------------------------------------------------------------|
B|--------------------------------------------------------------|
G|--------------------------------------------------------------|
D|------------3p2---2-3-2----------8\7-5/7\5-3-2-3-2-0-1-1-1----|
A|------------3p2---2-3-2----------6\5-3/5\3-3-2-3-2-0-1-1-1h2~-|
D|-0-0-0--0-0-3p2-0-2-3-2-0--0-0-0-----------3-2-3-2-0-1-1-1----|
pm . . .  . .     .       .  . . .  

Chorus
e|-------------------------------------------------------------------------|
B|-------------------------------------------------------------------------|
G|---------------5-5-7---------------------7-7-9---------------------3-3-2-|
D|---------------5-5-7---------------------7-7-9---------------------3-3-2-|
A|---------------3-3-5---------------------5-5-7---------------------1-1-0-|
D|-0-3-2-0-3-2-0-------0-3-2-0-3-2-0-2-3-2-------0-5-3-2-5-3-2-5-3-2-------|
pm . . . . . . .       . . . . . . . . . .       . . . . . . . . . .  

Guitar Solo
e|----------------------------8-6-5-----------------------9h10h12-15~----|
B|------------------------7-9-------8-6-5-----------5-6-8----------------|
G|----------------------8-----------------8-6-5-6-8----------------------|
D|------9------9------9--------------------------------------------------|
A|-7-10---7-10---7-10----------------------------------------------------|
D|-----------------------------------------------------------------------|
Tap to rate this tab
 
# A B C D E F G H I J K L M N O P Q R S T U V W X Y Z