Washya - Cruel Seas tab

-----------------------------------------------------------------------------
			     SONG NAME - Band Name
-----------------------------------------------------------------------------
Tabbed by: Josh
Email:

Tuning: Standard
Intro
e|-------------------------------------------------------------|
B|-------------------------------------------------------------|
G|-------------------------------------------------------------|
D|-2-2-2-2-2-2-2-2-2-2-5-5-5-5-5-5-5-8-8-8-8-8-8-8-8-6-6-6-6-6-|
A|-2-2-2-2-2-2-2-2-2-2-5-5-5-5-5-5-5-8-8-8-8-8-8-8-8-6-6-6-6-6-|
E|-0-0-0-0-0-0-0-0-0-0-3-3-3-3-3-3-3-6-6-6-6-6-6-6-6-4-4-4-4-4-|

Verses
e|-------------------------------------------------------------5-------|
B|-------------------------------------------3-------------8-7---7-5-7-|
G|--------------------------3------------2-4---4-2-----5-7-------------|
D|---------3------------6-5---6-5----5-3-----------3-5-----------------|
A|-----6-5---5-3----3-5-----------3------------------------------------|
E|-3-5-----------4-----------------------------------------------------|


Chorus
e|-------------------------------------------------------------------|
B|-------------------------------------------------------------------|
G|-------------------------------------------------------------------|
D|-5---5---5-------------7-5-3---------------------------------------|
A|-3-5-3-5-3-5-3-5-3-5-3-5-3-1-5-5-5-3-3-3---3---3---3-3-3-3-2-2-2-2-|
E|---3---3---3-1-3-1-3-1-------3-3-3-1-1-1-1---1---1---1-1-1-0-0-0-0-|

Guitar Solo
e|--------------------------------------------------------------------------|
B|-------------------------------------------------------------------13-15~-|
G|----------------------------------------------------------------12--------|
D|-------------------------------------------------------12-13-15-----------|
A|-------------------12-13-15-12-13-15----------12-13-15--------------------|
E|-12-13-15-12-13-15-------------------12-13-15-----------------------------|

Tap to rate this tab
 
# A B C D E F G H I J K L M N O P Q R S T U V W X Y Z