Washya - Space Dogs tab

-----------------------------------------------------------------------------
                                 Space Dogs - Washya
-----------------------------------------------------------------------------
Tuning: Drop D (DADgbe) 
Intro

e|--------------------------------------------------|
b|--------------------------------------------------|
G|-------------5~--------------7~-------------9/12~-|
D|-----2---2----------4---4-----------6---6---------|
A|---2---2----------4---4-----------6---6-----------|
D|-2---------2----4---------4-----6---------6-------|

Chorus
e|------------------------------------------------------------------------|
b|------------------------------------------------------------------------|
G|-8-8-8-8-8-8-8-8---9-9-9-9-9-9-9-9-9---4-4-4-4-4-4-4-4-2-22-2-----------|
D|-8-8-8-8-8-8-8-8-4-9-9-9-9-9-9-9-9-9-1-4-4-4-4-4-4-4-4-2-22-2-0-2-3-2-5-|
A|-6-6-6-6-6-6-6-6-4-7-7-7-7-7-7-7-7-7-1-2-2-2-2-2-2-2-2-0-00-0-0-2-3-2-5-|
D|-6-6-6-6-6-6-6-6-4-7-7-7-7-7-7-7-7-7-1-2-2-2-2-2-2-2-2-0-00-0-0-2-3-2-5-|

Verses
e|------------3-----------------------3---------|
b|------------3-----------------------3---------|
G|-----4------------------------4-------2-3-2-0-|
D|-------4----------------4-------4-----------0-|
A|---2------------2-4-2-------2-----------------|
D|-2--------2---2-------2---2-------2-----------|

Tap to rate this tab
 
# A B C D E F G H I J K L M N O P Q R S T U V W X Y Z