Washya - Turning Tide tab

-----------------------------------------------------------------------------
			     Turning Tide - Washya
-----------------------------------------------------------------------------
Tabbed by: Josh
Email:

Tuning: Standard (eBGDAE) 
Intro/Verses
G, G, E, E, A, A,C,C,C,Em,Em. 
e|-3-3-0-0-0-0-0-0-0-0-0-0-----------5-3-|
B|-3-3-0-0-2-2-2-1-1-1-0-0-----------5-3-|
G|-0-0-1-1-2-2-2-0-0-0-0-0---------------|
D|-0-0-2-2-2-2-2-2-2-2-2-2---------------|
A|-2-2-2-2-0-0-0-3-3-3-2-2-0-2-----------|
E|-3-3-0-0-0-0-0-0-0-0-0-0-----3-2-0-----|

Strum Chords

Chorus F, Am, C, Em.
e|-00-0-00-0-00-0-00-0---------00-0-------------0-5\3-|
B|-00-0-11-1-11-1-00-0---------33-0-------------0-5\3-|
G|-22-2-22-2-00-0-00-0---------00-0-----3p0-----0-----|
D|-33-3-22-2-22-2-22-2-2-0-----22-2-2-0-----2---2-----|
A|-33-3-00-0-33-3-22-2-----3-2-22-2-----------3-2-----|
E|-11-1-00-0-00-0-00-0---------00-0-------------0-----|


Little Solo
e|-------------------------------------------------|
B|-------------------------------------------------|
G|-------------------------------2-2---------------|
D|-----2-0--------2-0--------2-0-----0-3-2---------|
A|-2-3-----2--2-3-----2--2-3---------------2-------|
E|-------------------------------------------3-2-0-|
Tap to rate this tab
 
# A B C D E F G H I J K L M N O P Q R S T U V W X Y Z