Song name
# A B C D E F G H I J K L M N O P Q R S T U V W X Y Z

Washya - Slither tab

-----------------------------------------------------------------------------
			     Slither - Washya
-----------------------------------------------------------------------------
Tabbed by:
Email:

Tuning: Drop D
Intro
e|-----------------------------------------------------|
B|-----------------------------------------------------|
G|-----------------------------------------------------|
D|---------2---------------2--------------3---3---3-5~-|
A|-----2-3---3-2-3-----2-3---3-2-3------2---2---2------|
D|-000-------------000--------------000----------------|
pm ... . . . . . . ... . . . . . .  ... . . . . .    


Verses
e|-----------------------------------------------------------------------|
B|-----------------------------------------------------------------------|
G|-------------0-----------------------------------------------5---------|
D|-----------2---2-0--------------------5-3h5p3------------------3-------|
A|-----0-2-3---------3-2-0-1------0-2-5---------3-2-0--------------2-0-2-|
D|-000---------------------1--000---------------------1-3--000---------2-|
pm ... . . . . . . . . . .    ... . . . . . . . . . . . .  ... . . . . . 


Chorus
e|-----------------------------------------------------------------------|
B|-----------------------------------------------------------------------|
G|---2-3---------------------------------------------------0-------------|
D|-0-2-3------0-8-7---------2-9-8--------------------0-3-2---2-----------|
A|-0-0-1-1111-0-8-7---------2-9-8----------------3-2-----------3---------|
D|-0----------0-8-7-2-3-2-0-2-9-8-66666644442222-----------------00-0000-|
pm       ....       . . . .       ..............                 .. ....


Tap to rate this tab
 
# A B C D E F G H I J K L M N O P Q R S T U V W X Y Z