Song name
# A B C D E F G H I J K L M N O P Q R S T U V W X Y Z

Washya - Wild Weather tab

-----------------------------------------------------------------------------
			     Wild Weather - Band Name
-----------------------------------------------------------------------------
Tabbed by:
Email:

Tuning: Standard
Intro
e|-----------------------------------------------------|
B|-----------------------------------------------------|
G|-----------------------------------------------------|
D|-5-5-7--5-5-9-9-7-5-7-7-7-5-5-5----------------------|
A|-5-5-5--5-5-7-------5-5-5-5-5-5-5-3-1-3-3-3--3-3-3-2-|
E|--------------------------------------1-1-1--1-1-1-0-|

Verses
e|-----------------------------------------------------|
B|-----------------------------------------------------|
G|-----------------------------------------------------|
D|-5-5-5-5-7-7-8-8-10-8-6-8-8-8------------------------|
A|-3-3-3-3-5-5-6-6--------6-6-6-8-6-4-4-4-4--4-4-4-2-2-|
E|------------------------------------2-2-2--2-2-2-0-0-|

Chorus
e|-----------------------------------------------------|
B|-----------------------------------------------------|
G|-----------------------------------------------------|
D|-0-2-2-0-2-0--0-0-2--2-2-4-4-4-6-4-6-7-7-5-----------|
A|-0-2-2-0-2-0--0-0-2--2-2-2-2-2-4-4-4-5-5-5-5-5-5-2-2-|
E|-------------------------------------------3-3-3-0-0-|

Tap to rate this tab
 
# A B C D E F G H I J K L M N O P Q R S T U V W X Y Z