Song name
# A B C D E F G H I J K L M N O P Q R S T U V W X Y Z

Washya - Nightmare Road tab

-----------------------------------------------------------------------------
                            Nightmare Road - Washya
-----------------------------------------------------------------------------

Tuning: Drop D
Intro
e|---------------------------|
B|---------------------------|
G|-----3*-----------3*-------|
D|-6-5---6-5-3--6-5---6-5-3--|
A|-6-5---6-5-3--6-5---6-5-3--|
D|-6-5---6-5-3--6-5---6-5-3--|

Next Part
e|----------------------------------------------|
B|----------------------------------------------|
G|----------------------------------------------|
D|-0-0-3-0--0-3-0--0-3-0--0-2-3-2-0-0-3-0-0-3-0-|
A|-0-0-3-0--0-3-0--0-3-0--0-2-3-2-0-0-3-0-0-3-0-|
D|-0-0-3-0--0-3-0--0-3-0--0-2-3-2-0-0-3-0-0-3-0-|

Chorus
e|-------------------------------------|
B|-------------------------------------|
G|-------------------------------------|
D|----5-6-8-----5-6------5-------------|
A|-------------------------5-3---------|
D|--0-------6--0----7--0-------0-5-6-5-|
pm  .          .       .       . 

Verses
e|--------------------------------------------------|
B|--------------------------------------------------|
G|--------------------------------------------------|
D|-----5-5h6p5-----3--------------6-5---------------|
A|---3---------3-5------------3-5-------3-5-------3-|
D|-0-----------------5-6-3--0---------0-----0-5-6---|
pm .                        .         .     .   

Tap to rate this tab
 
# A B C D E F G H I J K L M N O P Q R S T U V W X Y Z