Song name
# A B C D E F G H I J K L M N O P Q R S T U V W X Y Z

Washya - Radiation tab

-------------------------------------------------------------------------------
			     Radiation - Washya
-------------------------------------------------------------------------------
Tabbed by: Josh
Email:

Tuning: Drop D
Intro/Main Riff
e|-----------------------------|
B|-----------------------------|
G|-----------------------------|
D|-0-5-8-0-3-5-0-3-3-3-3-0-3-5-|
A|-0-5-8-0-3-5-0-3-3-3-3-0-3-5-|
D|-0-5-8-0-3-5-0-3-3-3-3-0-3-5-|

Chorus
e|---------------------------------------------|
B|---------------------------------------------|
G|---------------------------------------------|
D|-3-3-3-3-5-5-5-5-8-8-8-8-8-8-6-6-6-6-3-5-3-0-|
A|-3-3-3-3-5-5-5-5-8-8-8-8-8-8-6-6-6-6-3-5-3-0-|
D|-3-3-3-3-5-5-5-5-8-8-8-8-8-8-6-6-6-6-3-5-3-0-|

Verses
e|---------------------------------------------|
B|---------------------------------------------|
G|---------------------------------------------|
D|-0-0-3-0-3-5-0-0-8-8-8-7-4-4-4-4-0-3-5-0-1-3-|
A|-0-0-3-0-3-5-0-0-8-8-8-7-4-4-4-4-0-3-5-0-1-3-|
E|-0-0-3-0-3-5-0-0-8-8-8-7-4-4-4-4-0-3-5-0-1-3-|



Guitar Solo
e|--------------------------------------------------------------|
B|--------------------------------------------------------------|
G|--------------------------------------------------------------|
D|-----3-----------3-3-3--------3-----------3-3-3-------3-3/5---|
A|-3-5---5-3-5-3-5-------5--3-5---5-3-5-3-5-------5-3/5---------|
D|--------------------------------------------------------------|

e|-----------------------------------------17-15-13-16-19-20~-|
B|-----------------------------10/13/12/15--------------------|
G|-----------------10-11-10-12--------------------------------|
D|-7/8/10----10-12--------------------------------------------|
A|--------12--------------------------------------------------|
D|------------------------------------------------------------|
Tap to rate this tab
 
# A B C D E F G H I J K L M N O P Q R S T U V W X Y Z