Song name
# A B C D E F G H I J K L M N O P Q R S T U V W X Y Z

Washya - State Of Mind tab

-------------------------------------------------------------------------------
			     State Of Mind - Band Name
-------------------------------------------------------------------------------
Tabbed by: Josh
Email:

Tuning:
Intro
e|-------12h13p12p10h12-15~--------17h18p17p15h17p15p14h15p14p12\-|
B|----------------------------------------------------------------|
G|----------------------------------------------------------------|
D|----------------------------------------------------------------|
A|-2-2-2--------------------2-2-2---------------------------------|
E|-0-0-0--------------------0-0-0---------------------------------|
pm . . .                    . . . 


Verses
e|-------------------------------------------------|
B|-------------------------------------------------|
G|-------------------------------------------------|
D|-------------------------------------------------|
A|-222-222-222-222-3-5-6-8-8-6-5-3-222-222-222-222-|
E|-000-000-000-000-1-3-4-6-6-4-3-1-000-000-000-000-|
pm ... ... ... ...                 ... ... ... ...   


Chorus
e|----------------------------------------------------------|
B|----------------------------------------------------------|
G|----------------------------------------0-----------------|
D|---------2~-0-2-0---------------------4-------------------|
A|-------3----------3-----------3---1-2-----3-2-------3-3-2-|
E|-0-0-1--------------1-0-0-0-0---0-------------0-2-1-1-1-0-|
pm . .                  . . . .   .                   . . .   
Tap to rate this tab
 
# A B C D E F G H I J K L M N O P Q R S T U V W X Y Z