Song name
# A B C D E F G H I J K L M N O P Q R S T U V W X Y Z

Washya - Therapy Of Sacrifice tab

-------------------------------------------------------------------------------
			     Therapy Of Sacrifice - Washya
-------------------------------------------------------------------------------
Tabbed by: Josh
Email:

Tuning: Standard (eadgbe)
Intro
e|---------|
B|---------|
G|---------|
D|-----4---|
A|-5-3-2-4-|
E|-3-1---2-| X16

Verses
e|----------------------------|
B|-----8--------6---------5---|
G|-------7--------5---------4-|
D|----------------------------|
A|---3--------1---------0-----|
E|-3--------1---------0-------|

Chorus
e|---------------------------------------------------------|
B|---------------------------------------------------------|
G|---------------------------------------------------------|
D|---3---3-----------6-5-4-----------9-8-7-6-5-------------|
A|-5-1-5-1-5-5-------4-3-2-3-3-------7-6-5-4-3-4-3---------|
E|-3---3---3-3-3-3-3-------1-1-1-1-1-----------2-1-0-0-0-0-|
pm             . . .           . . .               . . . . 
Tap to rate this tab
 
# A B C D E F G H I J K L M N O P Q R S T U V W X Y Z