Washya - Eclectic tab

-----------------------------------------------------------------------------
			     Eclectic - Washya
-----------------------------------------------------------------------------
Tabbed by: Josh
Email:

Tuning: Standard (eBGDAE) 
Intro
e|-----------------------------------------------|
B|-----------------------------------------------|
G|---------------------------3-5-3---------------|
D|---------6-------------6-5-------5-3-----------|
A|---6-5-----5-6-3-----2---------------6---------|
E|-2-----2---------5-3-------------------5-3-2-1-|

Verses (constant play through for verses)
e|-------1-------1-------1-----------1--------1-3---------|
B|-----2-------2-------2---2-------2--------2-----3-------|
G|---3-------3-------3-------3---3--------3---------1-----|
D|-1-------1-------1-----------1--------1-------------2~--|
A|--------------------------------------------------------|
E|--------------------------------------------------------|


Chorus
e|-----------------------------------6~-|
B|-------------------------------5-7----|
G|-7-7-7-7-7-5-5-5-------------6--------|
D|-7-7-7-7-7-5-5-5-3-5-5-3-5-6----------|
A|-5-5-5-5-5-3-3-3-3-5-5-3-5-6----------|
E|-----------------1-3-3-1-3-4----------|
Tap to rate this tab
 
# A B C D E F G H I J K L M N O P Q R S T U V W X Y Z