Washya - The Green Light tab

-------------------------------------------------------------------------------
			     The Green Light - Washya
-------------------------------------------------------------------------------
Tabbed by:
Email:

Tuning: Drop D (ebgdad) 
Intro
e|---------------------------------------------------|
B|------------------------------------------------8~-|
G|----4--5---4----5p4h5/7---5----8---7---5------6----|
D|-22--2---2---22---------2---22---2---2---2-55------|
A|-22--2---2---22---------2---22---2---2---2-55------|
D|-22--2---2---22---------2---22---2---2---2-55------|
pm ..  .   .   ..         .   ..   .   .   . ..  


Verses
e|----------------------------------|
B|-----------7b---------------------|
G|-----------7b---------------------|
D|-222-22-55----223/7\6~-22-3-0-2-5-|
A|-222-22-55----223/7\6~-22-3-0-2-5-|
D|-222-22-55----223/7\6~-22-3-0-2-5-|


Chorus
e|----------------------------------4b-------------------3---0--------|
B|------7b---------------12b--------4b---------------------0---3------|
G|------6b---------------11b------2----2---------------0---------2~---|
D|-2222----5555-3-5/8888-----222---------444333-11-111----------------|
A|-2222----5555-3-5/8888-----222---------444333-11-111----------------|
D|-2222----5555-3-5/8888-----222---------444333-11-111----------------|
Tap to rate this tab
 
# A B C D E F G H I J K L M N O P Q R S T U V W X Y Z