Song name
# A B C D E F G H I J K L M N O P Q R S T U V W X Y Z

Washya - The Beginning Of The War tab

-----------------------------------------------------------------------------
                         The Beginning Of The War - Washya 
-----------------------------------------------------------------------------
Tuning: Drop B (C#G#EBF#B) 

Intro (PLAY VERY FAST) (Also Slight Palm mute the bass notes)
C#|---------------------------------------------------------------------------|
G#|---------------------------------------------------------------------------|
E|----------------------------------------------------------------------------|
B|----------------------------------------------------------------------------|
F#|------------------13-12---10--------------7-8---------------9-8---2-1------|
B|-0-10-12-0-13-12-0-------0----12-0-13-12-0-----0-5-6-0-5-4-0-----0-----0-3-4|

Verses
C#|---------------------13p12p10h13p12p10-16p15p13h16p15h13h17~-----|
G#|-----------------------------------------------------------------|
E|------2-----2-----2-----------------------------------------------|
B|--0-1-2-0-1-2-0-1-2-----------------------------------------------|
F#|-0-1-0-0-1-0-0-1-0-----------------------------------------------|
B|--0-1---0-1---0-1-------------------------------------------------|

Chorus
C#|------------13~-------------------------------------------|
G#|------------15~-------------------------------------------|
E|------------------15-14-12----------------------5~---------|
B|-----777h9p7---------------15-14----------2-3-2----222h3p8-|
F#|----777h9p7---------------------12v----1----------222h3p8-|
B|-----777h9p7--------------------------0------------222h3p8-|
Tap to rate this tab
 
# A B C D E F G H I J K L M N O P Q R S T U V W X Y Z