Washya - Starscream tab

-------------------------------------------------------------------------------
			     Starscream - Band Name
-------------------------------------------------------------------------------
Tabbed by:
Email:

Tuning: Drop C (DAFCGC)
Intro
D|--------------------------------------------------|
A|--------------------------------------------------|
F|--------------------------------------------------|
C|--------6*--------6--------------------5----------|
G|----5h6-------5h6---6p5h6p5--------5h6---6-5-6-6~-|
C|-00--------00----------------00-00----------------|
pm ..        ..                .. .. 

Verses
D|--------------------------------------------------|
A|--------------------------------------------------|
F|--------------------------------------------------|
C|----------------------------------5h6*------------|
G|-00-00-00--0000-0000-0000---5h6--------6-5-3------|
C|-00-00-00--0000-0000-0000-0-----0------------2-1*-|
pm .. .. ..  .... .... ....                 


Chorus
D|-------------------------------------------------------|
A|-------------------------------------------------------|
F|-------------7*----------------------------------------|
C|-0-1-2-0--------0-0-3------------3*--------------------|
G|-0-1-2-0-5h6----0-0-1-22-00-2232-------5-6-8-6-5-5h6-3-|
C|-0-1-2-0--------0-0---22-00-2232----33---------------3-|
Tap to rate this tab
 
# A B C D E F G H I J K L M N O P Q R S T U V W X Y Z