Washya - No Principals tab

-----------------------------------------------------------------------------
			     No Principals - Washya
-----------------------------------------------------------------------------
Tabbed by:
Email:

Tuning: Standard (ebgdae) 
Intro 
e|--------------------------------------15-13\-|
B|-----------------------------12h14p12--------|
G|-121212h14-121212h14-1212h14-12--------------|
D|-121212h14-121212h14-1212h14-----------------|
A|-121212----121212----1212--------------------|
E|---------------------------------------------|


Verses
e|----------------------------------|
B|----------------------------------|
G|----------------------------------|
D|----------------------------------|
A|-4-4-4-4-4-4-4-2-4-7-7-7-7-7-7-7--|
E|-2-2-2-2-2-2-2-0-2-5-5-5-5-5-5-5--|
pm . . . . . . . . . . . . . . . .


Chorus
e|---------------------------------|
B|-----------7-xx-7-xx-7-7b--------|
G|-----------7-xx-7-xx-7-7b-9-7-9--|
D|--------------------------9-7-9--|
A|-8-6-2-5-7-----------------------|
E|-6-4-0-3-5-----------------------|


Guitar Solo
e|------------------------------------------------------15-14-13----10-----|
B|-9b~--9-9-12~-12-13-12---------------------13h15p12b~----------12----12--|
G|-----------------------13-----------12-13~-------------------------------|
D|--------------------------12~--------------------------------------------|
A|------------------------------11-12--------------------------------------|
E|-------------------------------------------------------------------------|



e|-----------------|
B|-10-12-10--------|
G|----------12/14~-|
D|-----------------|
A|-----------------|
E|-----------------|
Tap to rate this tab
 
# A B C D E F G H I J K L M N O P Q R S T U V W X Y Z