Washya - Binary tab

-----------------------------------------------------------------------------
                          Binary - Washya
-----------------------------------------------------------------------------
Tuning: Drop C
Intro
F|-------3-1-----------------|
A|---2-3-----3---------------|
D|-------------2-------------|
C|---------------------------|
G|-----------------3-2-------|
C|-0-------------0-----0-2-1-|

Verses
F|---0----------------0-----|
A|-----1------------0---3---|
D|-------0--------0-------2-|
C|---------3---3------------|
G|-----------2--------------|
C|-0------------------------|

Chorus
F|-----------------0-------------------0---0---|
A|-1-1-1-1-1-----0---0---------------1---0-----|
D|-2-2-2-2-2-0-2-------0-----------2---------0-|
C|-3-3-3-3-3-------------55555-3-3-------------|
G|-3-3-3-3-3-------------33333-1---------------|
C|---------------------------------------------|
Tap to rate this tab
 
# A B C D E F G H I J K L M N O P Q R S T U V W X Y Z