Song name
# A B C D E F G H I J K L M N O P Q R S T U V W X Y Z

Washya - Get Back tab

-----------------------------------------------------------------------------
                           Get Back - Washya
-----------------------------------------------------------------------------
Tuning: Drop C
Intro
F|-----------------------------------|
A|-----------------------------------|
D|-----------------------------------|
C|-----------------------------------|
G|-2-2--2-2-5-5-2-2-5-5--2-2--2-2----|
C|-2-2--2-2-5-5-2-2-5-5--2-2--2-2----|
pm . .  . . . . . . . .  . .  . . 

Main Riff/Chorus
F|--------------------------------------------|
A|--------------------------------------------|
D|--------------------------------------------|
C|--------------------------------------------|
G|-0-2-8-7-0-2-5-0-2-5-0-2-8-7-10101010-5-8-7-|
C|-0-2-8-7-0-2-5-0-2-5-0-2-8-7-10101010-5-8-7-|

Solo
F|-------------------------------|
A|-------------------------------|
D|-------------6~----------------|
C|---4---4-5-4------4---4-5-4----|
G|-2---2----------2---2----------|
C|----------------------------2~-|
Tap to rate this tab
 
# A B C D E F G H I J K L M N O P Q R S T U V W X Y Z