Song name
# A B C D E F G H I J K L M N O P Q R S T U V W X Y Z

Washya - From The Mouth Of Madness tab

-----------------------------------------------------------------------------
			     From the Mouth of Madness - Washya
-----------------------------------------------------------------------------
Tabbed by:
Email:

Tuning: Standard (EADgbe)
Intro (play fast)
e|----------------------------------------|
B|----------------------------------------|
G|----------------------------------------|
D|----------2p0-3p2p0h2p0-----------------|
A|----3p2p0------------------3p2p0h2p0h2--|
E|-00---------------------00--------------|
pm ..                     ..


Verses
e|-333322-33-23-55-23-2-3-----0---5-|
B|-333322-33-23-55-23-2-3-3-----3---|
G|-333322-33-23-55-23-2-3---2-------|
D|----------------------------------|
A|----------------------------------|
E|----------------------------------|


Chorus
e|----------------------------------------------------------------|
B|----------------------------------------------------------------|
G|----------------------------------------------------------------|
D|-----------------------3-2-------------------------5-7-8--------|
A|-2-2-222-2-3-2-5-2-3-2-1-0-3-2-2------------3-5-6--------2-5432-|
E|-0-0-000-0-1-0-3-0-1-0-----1-0-0-4444-4-6-7--------------0-3210-|
pm . . ...                         ....                    . 

Tap to rate this tab
 
# A B C D E F G H I J K L M N O P Q R S T U V W X Y Z