Washya - Sulfur tab

-----------------------------------------------------------------------------
			     Faded - Washya
-----------------------------------------------------------------------------
Tabbed by:
Email:

Tuning: Drop B
Intro
B|--------------------------------------------------------------|
F#|-------------------------------------------------------------|
B|------------------------------------------------------5-------|
E|----5h6p5-----5h6p5-----5h6p5-----6p5-3-----------------6p5---|
G#|-3---------3---------0---------5-------0---5h6p5---3-------0-|
C#|---------0---------3---------0-----------3-------0---------0-|
pm          .           .       .         .         .         .    

Verses
B|------------------------------------------------------------|
F#|-----------------------------------------------------------|
B|------------------------------------------------------------|
E|------------------------------------------------------------|
G#|-3-5-6-5-0-3-5-6-5-3-0-6-5-6-0-5-6-5-3-0-3-5-6-0-3-5-6-5-0-|
C#|-3-5-6-5-0-3-5-6-5-3-0-6-5-6-0-5-6-5-3-0-3-5-6-0-3-5-6-5-0-|
pm  . . . . . . . . . . . . . . . . . . . . . . . . . . . . .  

Chorus
B|----------------------------------------------|
F#|------10--------------------12---------------|
B|----10----10--------------12----12-12h13-10-8-|
E|----------------------------------------------|
G#|------------0-9h10-7-5-----------------------|
C#|-0---------------------0---------------------|
Tap to rate this tab
 
# A B C D E F G H I J K L M N O P Q R S T U V W X Y Z