Washya - Le Riviera tab

-----------------------------------------------------------------------------
                           Le Riviera - Washya
-----------------------------------------------------------------------------
Tuning: Drop B (BF#BEG#C#)
Intro
B|----------------------------------|
F#|---------------------------------|
B|----------------------------------|
E|----------------------------------|
G#|-00-65-0-23-00-65-0-23-00-231210-|
C#|-00-65-0-23-00-65-0-23-00-231210-|
pm  ..    .    ..    .    ..   

Verses
B|------------------------------------------------------------------------|
F#|-----------------------------------------------------------------------|
B|------------------------------------------------------------------------|
E|------------------------------------------------------------------------|
G#|-000000-333333----------------------000000---------------555555--------|
C#|---------------555555-111111-333333--------333333-777777--------000000-|
pm  ...... ...... ...... ...... ...... ...... ...... ...... ...... ......


Chorus
B|----------------------------------------------------------------------|
F#|---------------------------------------------------------------------|
B|--14-14-6-6-------------9999------------------------------------------|
E|--xx-xx-x-x-6-5---------xxxx------------------------------------------|
G#|-12-12-8-8-----3-------7777-666665653530-00-1-------333333-2-3-2-3-0-|
C#|-----------------5-3-0------666665653530------3-0-1----------3-2-3-0-|
pm                             ............ .. . . . . ...... . . . . .   

Verses
B|------------------------------------------------------------------------|
F#|-----------------------------------------------------------------------|
B|------------------------------------------------------------------------|
E|------------------------------------------------------------------------|
G#|-000000-333333----------------------000000---------------555555--------|
C#|---------------555555-111111-333333--------333333-777777--------000000-|
pm  ...... ...... ...... ...... ...... ...... ...... ...... ...... ......
Tap to rate this tab
 
# A B C D E F G H I J K L M N O P Q R S T U V W X Y Z