Song name
# A B C D E F G H I J K L M N O P Q R S T U V W X Y Z

Washya - Vulgarity tab

-------------------------------------------------------------------------------
			     Vulgarity - Band Name
-------------------------------------------------------------------------------
Tabbed by:
Email:

Tuning: Drop C (DAFCGC)

D|-------------------------------------------------------|
A|-------------------------------------------------------|
F|-------------------------------------------------------|
C|-------------3-------------------------3-----5-3-------|
G|---------3-5-----------------3-5---3-5-----3-----5-3---|
C|-0-3-5-0-------0-3-5p3-5-3-0-----0-------0-----------5-|

Verses

D|-------------------------------------------------------------------------|
A|-------------------------------------------------------------------------|
F|-------------------------------------------------------------------------|
C|-------------------------------------------------------------------------|
G|-------------------------------------------------------------------------|
C|-11-1-1-1-1-111-11-1-1-1-1-11-11-0-123-1111-1111-11-11111-1111-0-3455443-|
pm .. . . . . ... .. . . . . .. .. . ... .... .... .. ..... .... . .......

Verse 2
D|-------------------------------------------------------------------------|
A|-------------------------------------------------------------------------|
F|-------------------------------------------------------------------------|
C|-------------------------------------------------------------------------|
G|-------------------------------------------------------------------------|
C|-00-0-0-0-0-0-0-0-0-00-0-0-0-0-0-0-000-0-0-0-1-3-0-1-0-00-000000-00-2110-|
pm .. . . . . . . . . .. . . . . . . ... . . . . . . . . .. ...... .. ....

Chorus (Play fast)
D|---------------------------------------------------------------------|
A|---------------------------------------------------------------------|
F|---------------------------------------------------------------------|
C|---------------------------------------------------------5-----------|
G|-----------------6-------------2-3-5-7-----5-7-9-8-6-8-7---8-5-------|
C|-0-3-5-0-3-5-6-5---6-5-0-3-5-0---------5-3-----9-8-6-----------3-2-1-| 
pm . . . . . . . .   . . . . . .         . .     . . . . .   . . . . . 

Guitar Solo
D|-------------3-------3h5h6p5p3/5-------5-----5h6h8p6-------7-12b~--|
A|-2b-4b-2b-6b---4---4-------------6---6---6-7---------5---8---------|
F|-4b-6b-4b-8b-----5-----------------7-------------------7-----------|
C|-------------------------------------------------------------------|
G|-------------------------------------------------------------------|
C|-------------------------------------------------------------------|

D|-12p10p9h12p10p9/15p13p12h15p13p12h15/19p17p16h19p17p16/21p19h22b--|
A|--------------------------------------------------------------22b--|
F|-------------------------------------------------------------------|
C|-------------------------------------------------------------------|
G|-------------------------------------------------------------------|
C|-------------------------------------------------------------------|

D|-22----22----22----22----------------------------------------------------|
A|----21----21----21----20~------------------------------------------------|
F|-------------------------------------------------------------------------|
C|--------------------------------------------------------------12-13-15---|
G|--------------------------------------------12-14-16-12-14-16------------|
C|--------------------------12-14-16-12-14-16------------------------------|
pm                           .  .  .  .  .  .  .  .         

D|----------------------------------------------------------------------15--|
A|----------------------------------------------------------------12-14-----|
F|-------------------------------------------------------12-14-15-----------|
C|-------------------------------------12-13-15-------15--------------------|
G|-12-13-15----------12-14----12-14-17----------12-14-----------------------|
C|----------12-14-17-------16-----------------------------------------------|

D|-17~-17-----------17----------------17-----17-----21-17p16h17/20-22~---|
A|-----17h20p17-----17h20p17-18b------17-----17-----21-------------------|
F|--------------18b----------18b--20b----20b----20b----------------------|
C|-----------------------------------------------------------------------|
G|-----------------------------------------------------------------------|
C|-----------------------------------------------------------------------|
Tap to rate this tab
 
# A B C D E F G H I J K L M N O P Q R S T U V W X Y Z