Song name
# A B C D E F G H I J K L M N O P Q R S T U V W X Y Z

Washya - No Strings Attached tab

-----------------------------------------------------------------------------
                      No Strings Attached - Washya
-----------------------------------------------------------------------------

Tuning: Standard (ebgDAE)
Intro (High Distortion)
e|------------------------------------------------|
b|------------------------------------------------|
g|------------------------------------------------|
D|------------------------------------------------|
A|------------------------------------------------|
E|-5555555553337777777775558888888888001111111111-|x many
pm ..............................................

Chorus/Main Riff
e|-----------------------------------------------------------|
b|-----------------------------------------------------------|
g|-----------------------------------------------------------|
D|-----------------2-----------------------------------------|
A|-2-2-3/4\3-2-3/4-0-----------------0*---------1*-------3*--|
E|-0-0-1/2\1-0-1/2---0-0-1-2-1-0-1-2---0-0-1-2----0-1-2------|
pm                   . .       .       . .        . 

Verses D,                Am,
e|-222233-3322---------------------------------------------|
b|-333333-3333-----------111111----------------------------|
g|-222222-2222-----------222002----------------------------|
D|-----------------------222002----------------------------|
A|-------------3-3-5-3-3--------2-2-2-3-3-5--7-5---5*-------|
E|-------------1-1-3-1-5--------0-0-0-1-1-3------7----7-6-4-|
pm             . . . . .        . . . . . . 

/ = Slide
* = Pinch Harmonic
pm = Palm Mute
Tap to rate this tab
 
# A B C D E F G H I J K L M N O P Q R S T U V W X Y Z